Home » R » Rebelution »

Rebelution - Ordinary Girl Bass

Artists:  A B C D E F G H I J K L M N O P Q R S T U V W X Y Z # 

Ordinary Girl Bass

(ver. 3) Click to play this song!
Rebelution
Improving (hopefully) on the work done in the other versions.

Most of the song is the main riff with a few variations.
For the OCD, I've included song structure along with timings matched to the album 
version at the bottom.

Intro:
G|--------------------------------------------------------------------------|
D|-----------------------------6--------------------------------------------|
A|----7----7-----0000-4-7-----7-76-4-4-----696------------------------------|
E|----------------------------------------7----7-7--------------------------|

Main Riff:
G|--------------------------------------------------------------------------|
D|-------6-9------------------6---------------------------------------------|
A|--7777--------0-0-4777-----7-76-4-4-----696-------------------------------|
E|---------------------------------------7----7-7---------------------------|

Bridge:
G|--------------------------------------------------------------------------|
D|--------------------------6-----6------6---6------------------------------|
A|--000-4-7----00-04-7-------74----74-----747-74----------------------------|
E|--------------------------------------------------------------------------|

G|--------------------------------------------------------------------------|
D|--------------------------6-----6-----------------------------------------|
A|--000-4-7----00-04-7-------74----74-----696-------------------------------|
E|---------------------------------------7----7-7---------------------------|

End of the Bridge 2nd time:
G|--------------------------------------------------------------------------|
D|---------------6---9---7---6----------------------------------------------|
A|--------6--9--------------------9---7-------------------------------------|
E|----7---------------------------------------------------------------------|

Outro:
G|--------------------------------------------------------------------------|
D|------6-9-----------------------------------------------------------------|
A|----7------0-4-7----------------------------------------------------------|
E|--------------------------------------------------------------------------|



Variations on the Main Riff
Variation 1:
G|--------------------------------------------------------------------------|
D|--------6-9------------------6--------------------------------------------|
A|--7777---------0-0-4777-----7-76-4-4-----69---69--------------------------|
E|----------------------------------------7----7----------------------------|

Variation 2:
G|--------------------------------------------------------------------------|
D|--------6-9------------------6--------------------------------------------|
A|--7777---------0-0-4777-----7-76-4-4--------------------------------------|
E|----------------------------------------7---------------------------------|

Variation 3:
G|--------------------------------------------------------------------------|
D|--------6-9------------------------6--------------------------------------|
A|--7777---------0000-4-7-----4444-7-----------6-9--------------------------|
E|----------------------------------------7777------------------------------|

Variation 4:
G|--------------------------------------------------------------------------|
D|--------6-9------------------------6--------------------------------------|
A|--7777---------0000-4-7-----4444-7-------696------------------------------|
E|----------------------------------------7----7-7--------------------------|

Structure:
Intro           0:00 - 0:08
Main Riff x4    0:08 - 0:33
Var 1           0:33 - 0:39
Main Riff x2    0:39 - 0:52
var 2           0:52 - 0:57
Main Riff x2    0:57 - 1:10
Var 1           1:10 - 1:16
Main Riff x3    1:16 - 1:36
Var 1           1:35 - 1:41
Main Riff x2    1:41 - 1:54
Var 3           1:54 - 2:00
Var 4           2:00 - 2:06
Main Riff x3    2:06 - 2:26
Var 1           2:26 - 2:31
Bridge x2       2:31 - 2:59
Rest            3:00 - 3:12
Main Riff x4    3:12 - 3:36
Outro           3:36 - 3:40
            
Submit corrections

↑ Back to top | Tablatures and chords for acoustic guitar and electric guitar, ukulele, drums are parodies/interpretations of the original songs. You may use it for private study, scholarship, research or language learning purposes only