Home » R » Rebelution »

Rebelution - Meant To Be Tabs

Artists:  A B C D E F G H I J K L M N O P Q R S T U V W X Y Z # 

Meant To Be Tabs

(ver. 2) Click to play this song!
Rebelution

Tuning: Standard (notes in regard to capo being on 6th fret)

************* CAPO ON 6TH FRET **************

Intro(First Part)/Verse
E-----------------------------------------------------------------------|
B------0-----------------------------------0----------------------------|
G----0---0-----0-------0---------------------0-----0--------------------|
D--2---------0-------0---0------------0h2--------0----------------------|
A----------2-----3----------3-2----------------2-----3------------------|
E-----------------------------------------------------------------------|

Intro(Second Part)
E------------------------------------------------------------------|
B------0---------3-----1p0---------0-------------------------------|
G--0h2---0-----0---0-------2---0h2---0-----0-----------------------|
D------------0-------0-------0-----------0-------------------------|
A----------2-----3---------------------2-----3---------------------|
E------------------------------------------------------------------|

Pre-Chorus
e|-------------------------------------------------------------|
B|--1-----0-0h1--1h3-1-0-0-------0-----------------------------|
G|------0--------------------0-2-----0h1-0---------------------|
D|----2--------0-----------0-------0-------2p0-----------------|
A|--3-----2-3------------2-------------------------------------|
E|-----------------------------2-3-----------------------------|

Totally not right but for some reason couldn't figure it out for the life of me??        
            ||
                        ||
                        ||
                        \/
E|-------------------------------------------------------------|
B|-----1-0-0h1---1h3-1-0---------------------------------------|
G|-0-----------------------0---0-------------------------------|
D|---0---------0---------0-0h2-0-------------------------------|
A|-----3-2-3---------------------------------------------------|
E|-----------------------2-------------------------------------|

Chorus


e|-------------------------------------------------------------|
B|----0---0---1---1---0---0---1---1----------------------------|
G|----0---0---0---0---0---0---0---0----------------------------|
D|-------------------------------------------------------------|
A|--2---2---3---3---2---2---3---3------------------------------|
E|-------------------------------------------------------------|

Not spot on but will definitely let you vibe to the song.. i don't know if i missed any 
parts cause i didnt listen to the song while tabbin but lemme know if you have any 

                           -Jam on my friends :)

************************************

| /   slide up
| \   slide down
| h   hammer-on
| p   pull-off
| ~   vibrato
| +   harmonic
| x   Mute note
| b   Bend
| pb  Pre-bend
| br  Bend release
| pbr Pre-bend release
| brb Bend release bend

************************************
            
Submit corrections

↑ Back to top | Tablatures and chords for acoustic guitar and electric guitar, ukulele, drums are parodies/interpretations of the original songs. You may use it for private study, scholarship, research or language learning purposes only