Home » R » Rebelution »

Rebelution - Feeling Alright Tabs

Artists:  A B C D E F G H I J K L M N O P Q R S T U V W X Y Z # 

Feeling Alright Tabs

(ver. 3) Click to play this song!
Rebelution
(Acoustic)
(Intro)
This is the intro to the version of Rebelution's "Feeling Alright" posted in
to get the timing down. If you find any errors or have any questions, feel

P.S. it's my first tab so naturally I made a mistake; I didn't feel like
erasing and retyping, hence the stubby little insert near the end.



Tuning: Standard

e|----------------------0h2p0-------2--5-3-----------------------------------|
B|-------0--1--0--------------3-----3--3-3-----------0--1--0-----------------|
G|---0h2-----------------------0----------------0h2---------------2-0--0-----|
D|----------------0--------------------------------------------0--0---4---0--|
A|----------0-------------------2-----------------------0-----------------2--|
E|0------------3---------------------------0--0------------3-----------------|

e|---------------------------------------------------------------------------|
B|-----------------8-10-12--13----15-11-----13---------------7-----7---8-----|
G|---0h2p0---0-----9-9--11--14---14--12----12----------------9-----9---9-----|
D|-4-------4--------------------------------------<5>----------9--------9----|
A|----------------7--7--9---12--12---10--10-------------------------7----7---|
E|-------------0------------------------------------------7-7---7------------|

e|--5-5---3-3----------------------------------------------------------------|
B|--5-5---3-3--------7----------7----------8-10-12--10/13----13-13\11----11--|
G|--5-5---4-4-----7---7------7---7---------9-9--11----------0-----------0----|
D|----7-----5------7-----7----7-----7----------------------------------------|
A|----7-----5--3/5------5--------------7-7---7--9---9/12--12----12\10-10---0-|
E|-5--5--3--3--------------7-------7-----------------------------------------|

e|0h2p0-----------0----------------------------------------------------------|
B|------3----------3---------0-1---1--0----0---------------------------------|
G|--------0----------0----0h2-----2------0-----2-0---0------0h2p0--0---------|
D|--------------0---0-----------------------0--0---4---0--4------4-----------|
A|----------2---------2--------0-0---------------------2---------------------|
E|-----------------------0------------3-3----------------------------0-------|

e|-----------------|
B|-8-10-12-13---15-|
G|-9-9--11-14--14--|
D|-----------------|
A|-7-7--9--12-12---|
E|-----------------|

e|---------------------0-----------------------------------------------------|
B|-11---13---------------3---------0-1--3------------------------------------|
G|-12--12-------------------0---0h2-----------2--0---0-------0h2p0---0-------|
D|----------<5>------0-----0--------------0---0----4---0---4-------4---------|
A|-10-10-----------2----------------0------------------2---------------------|
E|----------------------------0-0-------0-------------------------------0----|

************************************

| /   slide up
| \   slide down
| h   hammer-on
| p   pull-off
| ~   vibrato
| <>  harmonic
| x   Mute note
| b   Bend
| pb  Pre-bend
| br  Bend release
| pbr Pre-bend release
| brb Bend release bend

************************************
            
Submit corrections

↑ Back to top | Tablatures and chords for acoustic guitar and electric guitar, ukulele, drums are parodies/interpretations of the original songs. You may use it for private study, scholarship, research or language learning purposes only