» » »

Real Mckenzies - My Mangy Hound Tabs

Artists:  A B C D E F G H I J K L M N O P Q R S T U V W X Y Z # 

My Mangy Hound Tabs

(ver. 1) Click to play this song!
Real Mckenzies
 Rating:
4.2/5 (5 votes)

 My Mangy Hound lessons Tabs too difficult? Try these video lessons and learn fast
 
                -----------------------------------------------------------------------------
-----------------------------------------------------------------------------

Tuning: Standard

verse

e|--------------------------------------------------------------------------|
B|--------------------------------------------------------------------------|
G|-------------8---------10-------------------------------------------------|
D|---8----5----8----8----10-------------------------------------------------|
A|---8----5----6----8----8--------------------------------------------------|
E|---6----3---------6-------------------------------------------------------|

chorus

e|--------------------------------------------------------------------------|
B|--------------------------------------------------------------------------|
G|--------8---------10---------8---10---------------------------------------|
D|---5----8----8----10----5----8---10---------------------------------------|
A|---5----6----8----8-----5----6---8----------------------------------------|
E|---3---------6----------3-------------------------------------------------|


=============================================================================
Somebody's lunch was scattered round the playground
A mangy hound Was draggin' it around
We laughed, we laughed
Cause some poor sucker
Had lost the lunch
He was given by his mother
My soul will burn eternally
For in that lunch was stuff
Mum made for me, for me

The custodian was called to the scene
She looked at me and read me
Like a magazine
She laughed, she laughed
Until she discovered
The nice lunch I was given by my mother
Was torn and shredded hopelessly
And the dog had ate my lunch Mum made for me, for me

[Chorus:]
I was the kid
with the spotty brown banana
I had a lunch
with a liverwurst sandwich
But now they're gone
Scattered all around the playground
By a dirty old mangy hound

Much later, safe in my room
I heard an animal
Howling at the moon
I laughed, I laughed
Until I discovered
The dog that ate my lunch Was howling for my supper
My soul was filled with sympathy

I was the kid
with the spotty brown banana
I had a lunch
with a liverwurst sandwich
But now they're gone
Scattered all around the playground
By a dirty old mangy hound

I was the kid
with the spotty brown banana
I had a lunch
with a liverwurst sandwich
And I got something better
my best friend now
is that mangy hound
            
Submit corrections


        My Mangy Hound lessons Hard to play? Try these video lessons and learn fast My Mangy Hound lessons
        
↑ Back to top | Tablatures and chords for acoustic guitar and electric guitar, ukulele, drums are parodies/interpretations of the original songs. You may use it for private study, scholarship, research or language learning purposes only