» » »

Real Friends - From The Outside Bass

Artists:  A B C D E F G H I J K L M N O P Q R S T U V W X Y Z # 

From The Outside Bass

(ver. 1) Click to play this song!
Real Friends
 Rating:
4.3/5 (9 votes)

 From The Outside lessons Tabs too difficult? Try these video lessons and learn fast
 
                Intro 0:01
Gb|---------------------------------------------------------------------|
Db|---------------------------------------------------------------------|
Ab|------------------2--2-2-----------------------------5--5-5----------|
Eb|-3--3-3--3-3--3------------5--5-5---3--3-3--3-3--3------------5--5-5-|

Verse 0:10
Gb|---------------------------------------------------------|
Db|---------------------------------------------------------|
Ab|-----------------------------------------5--5-5----------|
Eb|-3--3-3-3-3-3-----3--3-3--3-3---3--3-3------------5--5-5-|

Gb|-------------------------------------------------------------------------------------|
Db|-------------------------------------------------------------------------------------|
Ab|-------------------------2--2-2--------------------------10--10-10---5--5-5----------|
Eb|-3--3-3-3-3-3---3--3-3------------5--5-5---3--3-3--3-3------------------------5--5-5-|

0:28
Gb|---------|
Db|---------|
Ab|-5--4--2~|
Eb|---------|

0:33
Gb|---------------|
Db|---------------|
Ab|-------5--4--2~|
Eb|-3-3-3---------| Can play Ab (5th of E) to then feed into chorus at “the choice is mine”

Chorus 0:38
Gb|---------------------------------------------------------------------------------|
Db|---------------------------------------------------------------------------------|
Ab|------------------------2--2-2-----------------------------------5--5-5----------|
Eb|-3--3-3--3-3---3-3--3------------5--5-5---3--3-3--3-3---3-3--3------------5--5-5-| (x2)

Interlude 0:57 (“fine”)
Gb|---------------------------------------------------------------------------------|
Db|---------------------------------------------------------------------------------|
Ab|------------------------2--2-2-----------------------------------5--5-5----------|
Eb|-3--3-3--3-3---3-3--3------------5--5-5---3--3-3--3-3---3-3--3------------5--5-5-| 

Verse 1:07
Gb|---------------------------------------------------------|
Db|---------------------------------------------------------|
Ab|-----------------------------------------5--5-5----------|
Eb|-3--3-3-3-3-3-----3--3-3--3-3---3--3-3------------5--5-5-|

Gb|-------------------------------------------------------------------------------------|
Db|-------------------------------------------------------------------------------------|
Ab|-------------------------2--2-2--------------------------10--10-10---5--5-5----------|
Eb|-3--3-3-3-3-3---3--3-3------------5--5-5---3--3-3--3-3------------------------5--5-5-|

1:24
Gb|---------|
Db|---------|
Ab|-5--4--2~|
Eb|---------|

1:28
Gb|---------------|
Db|---------------|
Ab|-------5--4--2~|
Eb|-3-3-3---------| Can play Ab (5th of E) to then feed into chorus at “the choice is mine”

Chorus 1:34
Gb|---------------------------------------------------------------------------------|
Db|---------------------------------------------------------------------------------|
Ab|------------------------2--2-2-----------------------------------5--5-5----------|
Eb|-3--3-3--3-3---3-3--3------------5--5-5---3--3-3--3-3---3-3--3------------5--5-5-| (x2)


Bridge 1:52 (“fine”)
Gb|-11--9--7~--------------------------------|
Db|------------0-0-0-11~--11-11-11-7~--7-7-7-|
Ab|------------------------------------------|
Eb|------------------------------------------| (x4)

2:11 (“old”)
Gb|---------|
Db|---------|
Ab|-5--4--2~|
Eb|---------|

Gb|--------------|
Db|--------------|
Ab|------5--4--2~|
Eb|-5--3---------| (5th fret (Ab) at second “I” of “Why should I”)

Gb|---------------------------------------------------------------------------------|
Db|---------------------------------------------------------------------------------|
Ab|-0-0-0-0-0-0-0-0-0-0-0-0-0-0-0-0-12-12-12-12-12-12-12-12-12-12-12-12-12-12-12-12-|
Eb|---------------------------------------------------------------------------------|

Chorus 2:26
Gb|----------------------------------------|
Db|----------------------------------------|
Ab|------------------------5--5-5----------|
Eb|-3--3-3--3-3---3-3--3------------5--5-5-|

Gb|---------------------------------------------------------------------------------|
Db|---------------------------------------------------------------------------------|
Ab|------------------------2--2-2-----------------------------------5--5-5----------|
Eb|-3--3-3--3-3---3-3--3------------5--5-5---3--3-3--3-3---3-3--3------------5--5-5-|(x4)

Gb|--------------|
Db|--------------|
Ab|--------------|
Eb|-3--3-3-3-3-3-|

            
Submit corrections


        From The Outside lessons Hard to play? Try these video lessons and learn fast From The Outside lessons
        
↑ Back to top | Tablatures and chords for acoustic guitar and electric guitar, ukulele, drums are parodies/interpretations of the original songs. You may use it for private study, scholarship, research or language learning purposes only