» » »

Reagan Youth - What Will The Neighbors Think Tabs

Artists:  A B C D E F G H I J K L M N O P Q R S T U V W X Y Z # 

What Will The Neighbors Think Tabs

(ver. 1) Click to play this song!
Reagan Youth
 Rating:
4/5 (4 votes)

 What Will The Neighbors Think lessons Tabs too difficult? Try these video lessons and learn fast
 
                Reagan Youth - What will the neighbors think ?

0:00 - 0:07
e|----12--------------12-----------------------------------------------------------|
B|------12-11h12-12-----13h12-11h12------------------------------------------------|
G|--12---------------11----------------13-10-11h10----------11---------------------|
D|-(12)-----------------------------12------------14-12-------12-------------------|
A|------------------------------------------------------9-12-----------------------|
E|---------------------------------------------------------------------------------|

0:08 - 0:15
e|---------------------------------------------------------------------------------|
B|---11h12-13h12-------------------------------------------------------------------|
G|-12------------12h13---12-------12^----12---12---12------11h12-------------------|
D|---------------------12--11^-10^------12---12---12---10h12-----------------------|
A|---------------------------------------------------------------------------------|
E|---------------------------------------------------------------------------------|

0:16 - 0:22
e|-----12--------------12--------------12------------------------------------------|
B|-------12-11h12-12-----12-11h12-12-----12-10--10h12------------------------------|
G|-(12)--------------11--------------11--------------10-10h12h10-------------------|
D|-------------------------------------------------------------------12h13---------|
A|---------------------------------------------------------------12h13-------------|
E|---------------------------------------------------------------------------------|

0:23 - 0:29
e|---------------------------------------------------------------------------------|
B|---------------------------------------------------------------------------------|
G|---------------------------------------------------------------------------------|
D|-14---14---13---13-----14-16-17--------(13)-(16)---------------------------------|
A|---14---14---13---13---------17-(13)-(16)----------------------------------------|
E|---------------------------------------------------------------------------------|

0:30 - 0:37
e|---------------------------------------------------------------------------------|
B|---------------------------------------------------------------------------------|
G|------------------------------10--10-12-12^-12^-12^-1210-------------------------|
D|--------------7-9h7-7h9-12--12--12---------------------12------------------------|
A|----------7-9------9------14-----------------------------------------------------|
E|-7--7-7-10-----------------------------------------------------------------------|

0:37 - 0:44
e|---------------------------------------------------------------------------------|
B|-----------------14--------------------------------------------------------------|
G|-14-16-16-16~--16--16-14-16-14-14-------------------------17^-14-----------------|
D|------------------------------------15^--------15--15-15h17-----17-15-17h15------|
A|---------------------------------------17---17^---17-----------------------17h15-|
E|---------------------------------------------------------------------------------|

00:44 - 0:50
e|---------------------------------------------------------------------------------|
B|---------------------------------------------------------------------------------|
G|------7------7-9-10^-10-7---7-6^-^6-7--------------------------------------------|
D|-9-9-9-9-7-9-------------9-7---------7-7h4-7h4-----------------------------------|
A|----------------------------------------------5----------------------------------|
E|---------------------------------------------------------------------------------|

0:52 - 0:57
e|---------------------------------------------------------------------------------|
B|-----------------------13^----------------13^(let it ring for a sec)-------------|
G|--7-7-9-10h12h10-7-9-11----12h1311-12h1311---------------------------------------|
D|-7-9-----------------------------------------------------------------------------|
A|---------------------------------------------------------------------------------|
E|---------------------------------------------------------------------------------|

And this is when he starts singing:

0:58 - 1:05
Father comes home mixes up a another drink...
e|--------------11---------10-----11h12-------------------------------------------|
B|(12)-12---------12---------10--------11h12-10-----------------------------------|
G|---12--12---------12---------10--------------11-11h12h11------------------------|
D|---------12-12------12-12-------------------------------12----------------------|
A|--------------------------------------------------------------------------------|
E|--------------------------------------------------------------------------------|

1:05 - 1:12
And brother comes home throws up in the kitchen...
e|--------------------------------------------------------------------------------|
B|----------12--------------11h12------------------12-11h12-----------------------|
G|-----(12)-12-(12)-11h12h11----11-11h12h11--12-11-12------11-11h12h11------------|
D|-(12)--------------------------------------------------------------------12h13--|
A|--------------------------------------------------------------------12h13-------|
E|--------------------------------------------------------------------------------|

1:12 - 1:19
And sister dyes her mohawk green and pink...
e|---12--------10-------------------11--------------------------------------------|
B|(13)-12--(12)--10-11h12h11-10-------11------------------------------------------|
G|-13----13-12-----------------12-(11)----11--------11----------------------------|
D|----------------------------------------------------11--------------------------|
A|------------------------------------------12-10-12------------------------------|
E|--------------------------------------------------------------------------------|

1:20 - 1:26
And mother's wondering what the neighbors are gonna think...
e|-----------12----12-----10------------------------------------------------------|
B|-----11------12----12-----10----------------------------------------------------|
G|---12----------12-----------12--------------------------------------------------|
D|-12------12---------(12)-------10h12-10-10h12-12h10-----------------------------|
A|---------------------------------------------------12---------------------------|
E|--------------------------------------------------------------------------------|

1:27 - 1:33
..Mother, who cares about the neighbors...
e|--------------------------------------------------------------------------------|
B|--------------------------------------------------------------------------------|
G|----15^-15^-15^-----------------------------------------------------------------|
D|-16------------16-14---14-----------15--15-17-17^-17^-17h15--15-----------------|
A|--------------------17---17-14-15h17--17-------------------17--17---------------|
E|--------------------------------------------------------------------------------|

1:34 - 1:40
Who cares what the neighbors think...
e|--------------------------------------------------------------------------------|
B|---------------------------------------14^-14^-14-17h14-14----------------------|
G|----------------------------------14-16-------------------16h14-14--------------|
D|-------12--15^-15^-12h10--10-14-16--------------------------------16h14-14------|
A|-13~13~--13-------------12------------------------------------------------------|
E|--------------------------------------------------------------------------------|

1:41 - 1:48
Who gives a damn about the neighbors...
e|--------------------------------------------------16^-16^-^16h14--14------------|
B|---------------------------------------11h13-13-15--------------16--------------|
G|---15-15^-15^---------------------11-13-----------------------------------------|
D|-15-----------14h15-13-11--13-11------------------------------------------------|
A|-------------------------13-----13----------------------------------------------|
E|--------------------------------------------------------------------------------|

[1:48 - 1:54 IMPROVISE THIS BIT]

1:54 - 2:02
e|-----12----------11h12-----------------10---------------------------------------|
B|-------12--12---------11-12h13h11--------10-------------------------------------|
G|---12----12--(11)----------------12--------10h11h9------------------------------|
D|-(12)------------------------------(12)-----------11-12-12-12h14h12h14h12-14----|
A|--------------------------------------------------------------------------------|
E|--------------------------------------------------------------------------------|

2:02 - 2:08
e|--------------------------------------------------------------------------------|
B|--------------------------------------------------------------------------------|
G|--------------------------------------------------------------------------------|
D|-14--14-14-13-----13--12h13-14-16-16h17h16--------------------------------------|
A|---14--------13h14--14--------------------16-17---------------------------------|
E|-----------------------------------------------15h17----------------------------|

2:09 - 2:16
e|---12--------(12)---------------------------------------------------------------|
B|-----12--12------12h13h12-------------------------------------------------------|
G|-12----12--11------------14h15--------------------------------------------------|
D|------------------------------15^-15^-15^-10-10h12-12h10------------------------|
A|--------------------------------------12^---------------12----------------------|
E|--------------------------------------------------------------------------------|

2:16 - 2:23
e|--------------------------11-10--11-10--10-10-10-10-10-10-----------------------|
B|-------------12----------------11-----------------------------------------------|
G|-----(12)------(12)-------------------------------------------------------------|
D|-(12)----(12)------(12)-13------------------------------------------------------|
A|--------------------------------------------------------------------------------|
E|--------------------------------------------------------------------------------|

2:23 - 2:30
Mother who cares about the neighbors...
e|--------------------------------------------------------------------------------|
B|--------------------------------------------------------------------------------|
G|------------------------------------12--12-14-14-14^-14^-12h10------------------|
D|-11h12h11h12h11h12-13^-13^-13^-12h14--14----------------------12-14-------------|
A|--------------------------------------------------------------------------------|
E|--------------------------------------------------------------------------------|
__\_______________/-Do this a bunch of times, I'm not sure exactly for how long

2:30 - 2:37
Oh, who cares what the neighbors think...
e|--------------------------------------------------------------------------------|
B|--------------------------------------------------------------------------------|
G|-14^-14^-14^--------------------------------------------------------------------|
D|------------16-14~~--14---------------------------------------------------------|
A|-------------------17--17-14-------7/5-7~-7-5-4/2-2-5-4-4/-0--------------------|
E|----------------------------17-7-10---------------------------------------------|

2:37 - 2:43
Who gives a damn about the neighbors...
e|--------------------------------------------------------------------------------|
B|------------------------------13------------------------------------------------|
G|---------------------------12^--13-14^-13-12-10-11^-10--------------------------|
D|------------------12--12-14-----------------------------------------------------|
A|------5-7-9^-12-14--14----------------------------------------------------------|
E|-7-5-7--------------------------------------------------------------------------|

[2:44 - 2:50 - IMPROVISATION TIME]

2:50 - 2:57
Father comes home mixes up another drink...
e|----12-----------11---------11--------------------------------------------------|
B|------12-12--------11---------11--11-11h12--------------------------------------|
G|--12-------12--11----11-11------11--------11-11h12h11---------------------------|
D|-12-----------11----------11------------------------------12h13-----------------|
A|-----------------------------------------------------12h13----------------------|
E|--------------------------------------------------------------------------------|

2:57 - 3:04
And brother throws up in the kitchen sink...
e|----------------11-10--11-10-10-------------------------------------------------|
B|----------12---------11---------------------------------------------------------|
G|-----12--12-12------------------------------------------------------------------|
D|-(12)--12-----13---------------------14-15h16h14-11h12-11h12--------------------|
A|--------------------------------12h13-------------------------------------------|
E|--------------------------------------------------------------------------------|

3:04 - 3:11
And sister dyes her mohawk green and pink...
e|--------------------------------------------------------------------------------|
B|--------------------------------------------------------------------------------|
G|------12--------12--11^-11^-------------12--------------------------------------|
D|-14-12--12-13-12--12-------11-12----------12------------------------------------|
A|--------------------------------10-12-10----------------------------------------|
E|--------------------------------------------------------------------------------|

3:12 - 3:18
And mother wondering what the neighbors are gonna think...
e|--------------------------------------------------------------------------------|
B|------11-----------11-----------------------------------------------------------|
G|--------12------12---11------12--12-12-12---------------------------------------|
D|-12-13-----13-12-------12--12----12-12-12---------------------------------------|
A|--------------------------------------------------------------------------------|
E|--------------------------------------------------------------------------------|

3:19: - 3:32
Who cares about the neighborhood?...
e|--------------------------------------------------------------------------------|
B|--------------------------------------------------------------------------------|
G|--------------------------------------------------------------------------------|
D|-5-5-5--------------------------------------------------------------------------|
A|-3-3-3--------------------------------------------------------------------------|
E|-------(basically just play again 0:30 - 0:44)----------------------------------|

3:32 - 3:39
Who gives a damn about the neighborhood?...Did you ever need a favour?...
e|--------------------------------------------------------------------------------|
B|--------------------------------------------------------------------------------|
G|--------------------------------------------------------------------------------|
D|------------------------------------12-12^-12^-12^/9-9-7-5-7-5------------------|
A|---------5-7-5-9-12-14-12--12-14--12--------------------------7-----------------|
E|-7-7-5-7-----------------14-----------------------------------------------------|

3:39 - 3:46
What will the neighbors think?
[IMPROVISE, PLAY (FROM 3:41) SOMETHING LIKE THE FOLLOWING
OR
If you're too lazy to learn this next (and last) bit you can just play 0:52 - 0:57
As you caxzzn see - this last bit isn't much different from the part at the beggining]
e|--------------------------------------------------------------------------------|
B|-----------------------12^--10h11-8-10h11-8-13^---------------------------------|
G|----------9-10-8-7-5-11---------------------------------------------------------|
D|-----10-12----------------------------------------------------------------------|
A|-8-12---------------------------------------------------------------------------|
E|--------------------------------------------------------------------------------|

^ = Bend
h = hammer-on
/ = slide
~ = vibrate
[NOTE: When you see something like '1210' it's when you play the 12th fret and very 
move to the 10th one
rather than being when you play the 1210th fret on a extremely long guitar]
[NOTE2: If you're having trouble improvising just play a A with some weird distortion, 
should do it]

A chord:
e|----
B|----
G|----
D|-7--
A|-7--
E|-5--

*Phew* Thank Dog I finally got to finishing off this tab. It took a lot of time and 
as it
was my first attempt to tab a relatively difficult song (for a punk music lover anyway).
I hope you enjoy playing it as much as I didn't enjoy making it (just kidding - happy times!).
for corrections, comments, questions, cybersex or anything else really.
            
Submit corrections


        What Will The Neighbors Think lessons Hard to play? Try these video lessons and learn fast What Will The Neighbors Think lessons
        
↑ Back to top | Tablatures and chords for acoustic guitar and electric guitar, ukulele, drums are parodies/interpretations of the original songs. You may use it for private study, scholarship, research or language learning purposes only