» » »

Razorlight - Wire To Wire Tabs

Artists:  A B C D E F G H I J K L M N O P Q R S T U V W X Y Z # 

Wire To Wire Tabs

(ver. 1) Click to play this song!
Razorlight
 Rating:
4/5 (4 votes)

 Wire To Wire lessons Tabs too difficult? Try these video lessons and learn fast
 
                Razorlight - Wire To Wire

This is what I ear-transcribed and how I play this song.
To make it easier, in the intro you can barre the e and B string on the first fret and 
put your finger on the third fret up and down.
In the verses there is a hammer-on (0^1) on the first fret to make it sound more 
and more connected. Have fun and tell me if there's a mistake in my tab.


Intro:
   Dm
e|-------1------------1------------1------------1----------|
B|---3-3--------1-3-3--------1-3-3--------1-3-3--------1-3-|
G|-2-------2--2---------2--2---------2--2---------2--2-----|
D|---------------------------------------------------------|
A|---------------------------------------------------------|
E|---------------------------------------------------------|


Verse and chorus:
  Dm                 C        G
e|-------0^1-------|--------|------------|
B|-----3-----3-----|------1-|------0-----|
G|---2---------2---|----0---|----0---0---|
D|-0-------------0-|--------|------------|
A|-----------------|-3------|------------|
E|-----------------|--------|-3----------|


Between the verses:
[Intro]
   Dm
e|-------1------------1------------1------------1----------|
B|---3-3--------1-3-3--------1-3-3--------1-3-3--------1-3-|
G|-2-------2--2---------2--2---------2--2---------2--2-----|
D|---------------------------------------------------------|
A|---------------------------------------------------------|
E|---------------------------------------------------------|
            
Submit corrections


        Wire To Wire lessons Hard to play? Try these video lessons and learn fast Wire To Wire lessons
        
↑ Back to top | Tablatures and chords for acoustic guitar and electric guitar, ukulele, drums are parodies/interpretations of the original songs. You may use it for private study, scholarship, research or language learning purposes only