» » »

Razorlight - Los Angeles Waltz Tabs

Artists:  A B C D E F G H I J K L M N O P Q R S T U V W X Y Z # 

Los Angeles Waltz Tabs

(ver. 1) Click to play this song!
Razorlight
 Rating:
4/5 (4 votes)

 Los Angeles Waltz lessons Tabs too difficult? Try these video lessons and learn fast
 
                Los Angeles Waltz by Razorlight
Guitar Tab


This is the tab to the main guitar on LA Waltz, which I think is dead catchy. By the
you should put a capo on the 7th fret - as this is tabbed relative to that. Oh and remember
piece is in 6/8 (duhhh!).

INTRO:
E||--------------------|--------------------|
B||--------------------|--------------------|
G||-4------------------|--------------------|
D||-4------------------|-5------------------|
A||-2------------------|-5------------------|
E||--------------------|-3------------------| Let chords ring, play 4x.

VERSE:
E||-------------------------|
B||-------------------------|
G||-------------------------|
D||-------------------------|
A||-2-2-2-2-2-2-2-2-2-2-2-2-|
E||-------------------------| Play this 8x. On last time let last note ring.

E||-----0-----3--0-----|-----------2--------|
B||--------0--------0--|-----3--0-----3--0--|
G||--------------------|--------------------|
D||--2-----------------|--------------------|
A||--------------------|--2-----------------|
E||--------------------|--------------------| 3 times. Then to finish off...

E||--------------------|--------------------|
B||-----------5--------|-----------7--------|
G||-----5--------5-----|-----7--------7-----|
D||--------5-----------|--------7--------7--|
A||--3--------------3/-|--5-----------------|
E||--------------------|--------------------|

CHORUS:
E||--3--3------------3-|--0--2------2-----2-|
B||--0----0-------0--0-|--0----3-0--3--0--0-|
G||--0------0----------|--0---------2-------|
D||--0---------0-------|--2---------0-------|
A||--2-----------------|--3-----------------|
E||--3-----------------|--0-----------------| Repeat 4x.

Then simply repeat the VERSE bit again.

Then the CHORUS again!

Then this (the third verse, that differs from the other two):
E||-------------------------|
B||-------------------------|
G||-------------------------|
D||-------------------------|
A||-2-2-2-2-2-2-2-2-2-2-2-2-|
E||-------------------------| Do this 8 times once again but then...

E||---------------------------|
B||---------------------------|
G||-4-4-4--2-2-2--------------|
D||-4-4-4--2-2-2--5-5-5-5-5-5-|
A||-2-2-2--0-0-0--5-5-5-5-5-5-|
E||---------------3-3-3-3-3-3-| Play 2x but make the rhythm a bit choppier.

E||-------------------------|
B||-------------------------|
G||-------------4-----4---4-|
D||-2-----2---2-4-----4---4-|
A||-2-----2---2-2-----2---2-|
E||-0-----0---0-------------| Play 3x then to finish this off...

E||-------------------------|
B||-------------------------|
G||-5-----5---5-7-----7---7-|
D||-5-----5---5-7-----7---7-|
A||-3-----3---3-5-----5---5-|
E||-------------------------|

Back to the CHORUS again.

After that, there's nothing for the "we own eachother bit". When Johnny sings "Tonight
LA" just softly strum the first three power chords of the verse four times. Now here's
it gets interesting... Play this after you've softly strummed the chords and when Johnny 
up the dynamics again.

E|-2-----2-----2-----2-----|-0-----0-----3-----3-----|
B|---3-----3-----3-----3---|---3-----3-----3-----3---|
G|-----2-----2-----2-----2-|-----2-----2-----2-----2-|
D|-------------------------|-------------------------|
A|-------------------------|-------------------------| Play this three times
E|-------------------------|-------------------------| really quickly.

E|-2-----2-----2-----2-----|-7-----7-----5-----5-----|
B|---3-----3-----3-----3---|---5-----5-----3-----3---|
G|-----2-----2-----2-----2-|-----4-----4-----2-----2-|
D|-------------------------|-------------------------|
A|-------------------------|-------------------------|
E|-------------------------|-------------------------|

Then do it again, but play the two bars just above on the second repeat and simply strum
D chord on the last repeat out of the four.

SOLO:
E||-------------------|------------------|
B||-------------0--2--|--3----2--0-------|
G||-------------------|---------------0--|
D||--4----4--4--------|------------------|
A||-------------------|------------------|
E||-------------------|------------------|

------------------|------------------|
--0------0--2--3--|--2------2--0-----|
------------------|---------------1--|
------------------|------------------|
------------------|------------------|
------------------|------------------|

-------------------|------------------|
-------------0--2--|--3----2--0-------|
-------------------|---------------0--|
--4----4--4--------|------------------|
-------------------|------------------|
-------------------|------------------|

---------2------|--2--0--2--5--2--0--|
--0-------------|--------------------|
----------------|--------------------|
----------------|--------------------|
----------------|--------------------|
----------------|--------------------|

Once you've finished with that...

ENDING:
E||--7--5-----7--5-----|--7-----2--0--2------|
B||--------3--------3--|-----3----------2-0--|
G||--------------------|---------------------|
D||--------------------|---------------------|
A||--------------------|---------------------|
E||--------------------|---------------------| Play this 12 times.

E||---------------------------|----------------------------|
B||---------------------------|----------------------------|
G||-4-------------7-----------|---------------7-----2------|
D||-4-------------7-----------|-5-------------7-----2------|
A||-2-------------5-----------|-5-------------5-----0------|
E||---------------------------|-3--------------------------| Play twice.

E||---------------------------|
B||---------------------------|
G||-4-------------------------|
D||-4-------------------------|
A||-2-------------------------|
E||---------------------------| Let this ring. There we go! Song done.

Enjoy people! Feel free to leave a comment!
            
Submit corrections


        Los Angeles Waltz lessons Hard to play? Try these video lessons and learn fast Los Angeles Waltz lessons
        
↑ Back to top | Tablatures and chords for acoustic guitar and electric guitar, ukulele, drums are parodies/interpretations of the original songs. You may use it for private study, scholarship, research or language learning purposes only