» » »

Razorlight - Just Cant Explain Tabs

Artists:  A B C D E F G H I J K L M N O P Q R S T U V W X Y Z # 

Just Cant Explain Tabs

(ver. 1) Click to play this song!
Razorlight
 Rating:
4/5 (4 votes)

 Just Cant Explain lessons Tabs too difficult? Try these video lessons and learn fast
 
                (Intro)
                  JUST CAN'T EXPLAIN - Razorlight

INTRO:

    D                    G        A
e|------2---------------3-------------|
B|--------3---------------3------3-3--|
G|----2-------2---0---0--------2------|
D|--0-------0-------------------------|
A|---------------------------0--------|
E|--------------2---3-----------------|

    D                    G        A
e|------2---------------3--------0----|
B|--------3---------------3--------2--|
G|----2-------2---0---0--------2------|
D|--0-------0-------------------------|
A|---------------------------0--------|
E|--------------2---3-----------------|
            
Submit corrections


        Just Cant Explain lessons Hard to play? Try these video lessons and learn fast Just Cant Explain lessons
        
↑ Back to top | Tablatures and chords for acoustic guitar and electric guitar, ukulele, drums are parodies/interpretations of the original songs. You may use it for private study, scholarship, research or language learning purposes only