» » »

Rasmus - Every Day Bass

Artists:  A B C D E F G H I J K L M N O P Q R S T U V W X Y Z # 

Every Day Bass

(ver. 2) Click to play this song!
Rasmus
 Rating:
4/5 (4 votes)


 Every Day lessons Tabs too difficult? Try these video lessons and learn fast
 
                Rasmus - Every day


Standard tuning

-Intro:

G|---------------7--7----------| X3
D|--4--4--/7--7----------------|
A|---------------------7~------|
E|-----------------------------|

G|---------------7~---------|yes it's a chord: I think it sounds better
D|--4--4--/7--7-------------|
A|---------------5~----/----|
E|--------------------------|


-Chorus:

G|--------------------------------------------------------------------|
D|------------------------------------------------------------4-4-4---|
A|------------------5-5-5-5---------5-5-5-5---------4-4-4-4-4---------|
E|--2-2-2-2-5-5-5-5---------5-5-5-5---------5-5-5-5-------------------|

G|-----------------------------------------------------------------|
D|-----------------------------------------------------------------|
A|------------------5-5-5-5---------5-5-5-5---------4~-------------|
E|--2-2-2-2-5-5-5-5---------5-5-5-5---------5-5-5-5----------------|

-Pre-Verse: I'm not sure if it's played by bass or guitar... anyway here it is:

G|--4/6-6-6-4/6-6-6-4/6-6--|
D|-------------------------|
A|-------------------------|
E|-------------------------|

-Verse:

intro x2

-Chorus

-Pre-Verse

-2nd Verse:

G|------------------------------------| x3
D|------------------------------------|
A|------------------5--5--5-7--7--7---|
E|--2--2--2/5--5--5-------------------|			
							
G|-----------------------------|			
D|-----------------------------|
A|------------------5~----/----|
E|--2--2--2/5--5--5------------|

x2

-Chorus

-Bridge:

G|--------------------------------| x3
D|--------------------------------|
A|--5-5-5--7-7-7--4-4-4-----------|
E|-----------------------5-5-5----|

G|------------------------------------------|
D|------------------------------------------|
A|--5-5-5-5-5-5-5-5-4-4-4-4-4-4-4-4---------|
E|----------------------------------2~------|

-Break: played Very Softly

G|--------------------------------------------------------| x2
D|-----------------------------------------2--2-2--2-2----|
A|----------------------------5--5-5--5-5-----------------|
E|--2--2-2--2-2--5--5-5--5-5------------------------------|

-Final Chorus:

G|--------------------------------------------------------------------|
D|--------------------------------------------------------------------|
A|-----------------------------------5-5-5-5---------4-4-4-4-4-4-4-4--|
E|--2----------------------------------------5-5-5-5------------------|

G|--------------------------------------------------------------------|
D|--------------------------------------------------------------------|
A|-------------------5-5-5-5---------5-5-5-5---------4-4-4-4-4/-------|
E|--2------------------------5-5-5-5---------5-5-5-5------------------|

G|--------------------------------------------------------------------|
D|------------------------------------------------------------4-4-4---|
A|------------------5-5-5-5---------5-5-5-5---------4-4-4-4-4---------|
E|--2-2-2-2-5-5-5-5---------5-5-5-5---------5-5-5-5-------------------|

G|--------------------------------------------------------------------|
D|--------------------------------------------------------------------|
A|------------------5-5-5-5---------5-5-5-5---------4-4-4-4-4-4-4-4---|
E|--2-2-2-2-5-5-5-5---------5-5-5-5---------5-5-5-5-------------------|

-End Note:

G|----------|
D|----------|
A|----------|
E|--2~------|

Nice song, and funny to play too. It sounds good if you throw in some slides here and there...
Enjoy!
            
Submit corrections



        Every Day lessons Hard to play? Try these video lessons and learn fast Every Day lessons
        
↑ Back to top | Tablatures and chords for acoustic guitar and electric guitar, ukulele, drums are parodies/interpretations of the original songs. You may use it for private study, scholarship, research or language learning purposes only