» » »

Randy Rogers Band - In My Arms Instead Tabs

Artists:  A B C D E F G H I J K L M N O P Q R S T U V W X Y Z # 

In My Arms Instead Tabs

(ver. 1) Click to play this song!
Randy Rogers Band
 Rating:
3.4/5 (5 votes)

 In My Arms Instead lessons Tabs too difficult? Try these video lessons and learn fast
 
                Randy Rogers Band - In My Arms Instead (solo)
(no capo)

e------------------------------------------------------------------|
B--5-5-3-2----3-2-----3~--3-2-0----2-0-----------------------------|
G----------4------4-2-----------2-------2-1--4-2-1---1/2-2~-1------|
D--------------------------------------------------4----------4-2~-|
A------------------------------------------------------------------|
E------------------------------------------------------------------|
 
e--------------------------------------------------------------------------------|
B--------------------------------------------------------5---9-7-5-------5-------|
G-1--------------------------------------1-----------1-4---6-------7-6-4---7-6-4-|
D---4-0~-4-2-0-------0-2-4-2-0-------2-4---4-2x-2-4------------------------------|
A--------------4-2-4-----------4-2-4---------------------------------------------|
E--------------------------------------------------------------------------------|
            
Submit corrections


        In My Arms Instead lessons Hard to play? Try these video lessons and learn fast In My Arms Instead lessons
        
↑ Back to top | Tablatures and chords for acoustic guitar and electric guitar, ukulele, drums are parodies/interpretations of the original songs. You may use it for private study, scholarship, research or language learning purposes only