» » »

Randy Rogers Band - Down & Out Tabs

Artists:  A B C D E F G H I J K L M N O P Q R S T U V W X Y Z # 

Down & Out Tabs

(ver. 1) Click to play this song!
Randy Rogers Band
 Rating:
4/5 (4 votes)

 Down & Out lessons Tabs too difficult? Try these video lessons and learn fast
 
                        -------------------------------------------
	---------3------3----5--3------------------
	-------------------------------------------
	---4h5-5-5--5-5-5--5-----------------------
	-------------------------------------------
	-------------------------------------------

        -------------------------------------------
	---------3------3--------------------------
	-----------------------5-4-----------------
	---4h5-5-5--5-5-5--5-----------------------
	-------------------------------------------
	-------------------------------------------

Guys this is my first tab ever so let me know if i did a good job.just kind of 
let the strings ring while you play it and it will sound dead on.
            
Submit corrections


        Down & Out lessons Hard to play? Try these video lessons and learn fast Down & Out lessons
        
↑ Back to top | Tablatures and chords for acoustic guitar and electric guitar, ukulele, drums are parodies/interpretations of the original songs. You may use it for private study, scholarship, research or language learning purposes only