Home » R » Randy Rhoads »

Randy Rhoads - Outtake From Blizzard Of Ozz Sessions Tabs

Artists:  A B C D E F G H I J K L M N O P Q R S T U V W X Y Z # 

Outtake From Blizzard Of Ozz Sessions Tabs

(ver. 1) Click to play this song!
Randy Rhoads
e|--------------------------------------------------------------------------------------------------|
B|--------------------------------------------------------------------------------------------------|
G|-2b4r2p0----------------------------------------------------------2-------------------------3-----|
D|--------2p0-2p0-2p0-2p0-2p0---------------------------------------2-------------------------3-----|
A|---------------------------2p0-2p0-2p0------------------------------------------------------------|
E|--------------------------------------3-0--3--3-3-3-3-1-1-2-2-3-3---3-3-3-3-3-3-1-1-2-2-3-3-------|

e|---------------------------------------------------------------------------------------------------------|
B|---------------------------------------------------------------------------------------------------------|
G|-------------------------2---------3--------3/4-2--------------------------2-------------------------3---|
D|-------------------------2---------3--------3/4-2--------------------------2-------------------------3---|
A|---------------------------------------------------------------------------------------------------------|
E|-3-3-3-3-3-3-1-1-2-2-3-3---3-3-3-3---3-3-3-3------1-3--3-3-3-3-1-1-2-2-3-3---3-3-3-3-3-3-1-1-2-2-3-3-----|


e|------------------------------------------------------------------------------------|
B|------------------------------------------------------------------------------------|
G|-------------------------------------------------------6p3h5p3---5p3---6p3h5p3------|
D|--------------------------------------------------------------5p3---5p3-------5p3---|
A|-------------------------4p1h3p1----3p1-----4p1h3p1---------------------------------|
E|-3-3-3-3-3-3-1-1-2-2-3-3--------3p1-----3p1--------3p1------------------------------|

e|-9p6h8p6---8p6---9p6h8p6-----------------------------------------------------------------------------|
B|--------8p6---8p6-------8p6--11p8---8---------------------8------------------------------------------|
G|---------------------------------10--10-7h8r7-6h7r6---5h6--------------------------------------------|
D|----------------------------------------------------8-------10p8----8--------------------------------|
A|-----------------------------------------------------------------10---10p8----8----------------------|
E|---------------------------------------------------------------------------10---10p9p8-6h8p6-3h6p3---|

e|-----------------------------------------------------------------------------------------|
B|-----------------------------------------------------------------------------------------|
G|-----------------------------------------------------------------------------------------|
D|-----------------------------------------------------------------------------------------|
A|---------1-----------1-----------1-----------1-----------1-----------1-----------1-------|
E|-1-3-1-3---3-1-3-1-3---3-1-3-1-3---3-1-3-1-3---3-1-3-1-3---3-1-3-1-3---3-1-3-1-3---3-1---|

e|----------------------------6-8p6----10p8---11p9----12p10----13----|
B|----------------------8-6/8-------7-------9------10-------11-------|
G|------------------5/7----------------------------------------------|
D|--------3---3h5p3--------------------------------------------------|
A|--5p3h5---5--------------------------------------------------------|
E|-------------------------------------------------------------------|

e|-15p10-------15p10-------15p10-------15p10--------14p10-------14p10-------14p10-------14p10--------|
B|-------15p10-------15p10-------15p10-------15p10--------14p10-------14p10-------14p10-------14p10--|
G|---------------------------------------------------------------------------------------------------|
D|---------------------------------------------------------------------------------------------------|
A|---------------------------------------------------------------------------------------------------|
E|---------------------------------------------------------------------------------------------------|

e|-15p10-------15p10-------15p10-------15p10--------14p10-------14p10-------14p10----------|
B|-------15p10-------15p10-------15p10-------15p10--------14p10-------14p10-------14p10----|
G|-----------------------------------------------------------------------------------------|
D|-----------------------------------------------------------------------------------------|
A|-----------------------------------------------------------------------------------------|
E|-----------------------------------------------------------------------------------------|

e|-10-11-13-10-11----10-------------------------------------------------------------------|
B|----------------13----13-11p10-11p10-8h10p8-7-------------------------------------------|
G|----------------------------------------------8-7h8p7\5-7p5-----------------------------|
D|------------------------------------------------------------8p7-8p7--5-8p7p5------------|
A|-----------------------------------------------------------------------------5h6p5\3h5--|
E|----------------------------------------------------------------------------------------|

e|------------------------------------------------------------------------|
B|------------------------------------------------------------------------|
G|------------------------------------------------------------------------|
D|------------------------------------------------------------------------|
A|-3/5h9p5h9p5h9p5h9p5h9p5h9p5h9p5h9p5h9p5h9p5h9p5h9p5h9p5h9p5h9p5h9p5----|
E|------------------------------------------------------------------------|

e|---------------------------------------15p13----13b15~-15b17r(slowly back down to)-15-14-13-12--------|
B|---------------------------------11h13-------15------------------------------------------------16-15--|
G|--------------------7h8h10-10h12----------------------------------------------------------------------|
D|-------------7h8h10-----------------------------------------------------------------------------------|
A|-15\---5h6h8------------------------------------------------------------------------------------------|
E|------------------------------------------------------------------------------------------------------|

e|-----------------15-17-19-----------------15--19-19-17-----------------------------------15-17-19--|
B|-15-15-15--15-15----------15-15-15--15-15--------------19-15--15-15-15--15-15-15--15-15------------|
G|---------------------------------------------------------------------------------------------------|
D|---------------------------------------------------------------------------------------------------|
A|---------------------------------------------------------------------------------------------------|
E|---------------------------------------------------------------------------------------------------|

e|-----20/22-18h20p18-19h20p19-15----------------------------------------------------|
B|--15----------------------------15p16h15-------------------------------------------|
G|-----------------------------------------15b16\--------7---------------------------|
D|---------------------------------------------------7---5---------------------------|
A|------------------------------------------------5--5-5---5-------------------------|
E|------------------------------------------------3----3---3-(toggles pickups)-------|

e|-----------------------------------------------------------------------------------------------------------|
B|-----------------------------------------------------------------------------------------------------------|
G|-------------------------------------4h5h7-------------6h8h9---------------7h9h11-----------------9h10h12--|
D|-------------------2h3h5-------4h5h7-------------6h7h9--------------7h9h10----------------9h10h12----------|
A|-------------2h3h5-------4h5h7-------------6h7h9-------------7h9h10---------------9h10h12------------------|
E|-19\---2h3h5-----------------------------------------------------------------------------------------------|

e|----------------15-------15-------16------17------17-----17b19r17b19r17b19r17b20~~~r19--|
B|-----------17b18---17b18----18b19---19b20---19b20----19---------------------------------|
G|-11h12h14-------------------------------------------------------------------------------|
D|----------------------------------------------------------------------------------------|
A|----------------------------------------------------------------------------------------|
E|----------------------------------------------------------------------------------------|

e|-----------------|
B|-----------------|
G|-----------------|
D|-----------------|
A|-------7---------|
E|-19\---5---------|            
Submit corrections

↑ Back to top | Tablatures and chords for acoustic guitar and electric guitar, ukulele, drums are parodies/interpretations of the original songs. You may use it for private study, scholarship, research or language learning purposes only