» » »

Randy Newman - Blue Shadows On The Trail Chords

Artists:  A B C D E F G H I J K L M N O P Q R S T U V W X Y Z # 

Blue Shadows On The Trail Chords

(ver. 2) Click to play this song!
Randy Newman
 Rating:
4.3/5 (25 votes)

 Blue Shadows On The Trail lessons Tabs too difficult? Try these video lessons and learn fast
 
                [Intro]
e|--------------|--------------|--------------|---------------|
B|--------------|--------------|--------------|---------------|
G|--------------|--------------|--------------|---------------|
D|--------------|--------------|--------------|---------------|
A|-----2--4---2-|-----2--4---2-|-----2--4---2-|----2--4--3--2-|
E|-0------------|-1------------|-2------------|---------------|

e|--------------|--------------|--------------|---------------|
B|--------------|--------------|--------------|---------------|
G|--------------|--------------|--------------|---------------|
D|--------------|--------------|--------------|---------------|
A|-----2--4---2-|-----2--4---2-|-----2--4---2-|----2--4--3--2-|
E|-0------------|-1------------|-2------------|---------------|

[Verse 1]
e|-0---|(2)--|-0--|-0----|-----|-----|-0--|-0----|-----|-----|-----|-----|-2------|---------7--|
B|-0---|-0---|-0--|-3----|-2---|-2---|-0--|-3----|-2---|-2---|-3---|-2---|-2------|-4--5--7----|
G|-1---|-2---|-1--|-1----|-2---|-0---|-1--|-1----|-2---|-0---|-4---|-4---|-3------|-------8----|
D|-2---|-1---|-2--|-2----|-2---|-2---|-2--|-2----|-2---|-2---|-4---|-3---|-2------|-4--6--7----|
A|-2---|-x---|-2--|-2----|-0---|-1---|-2--|-2----|-0---|-1---|-x---|-4---|-4------|------------|
E|-0---|-2---|-0--|-0----|-----|-----|----|-0----|-----|-----|-4---|-----|-2------|------------|

[Chorus]
e|-0---|-----------|-----|-----|-0---|----------|-------------|------|
B|-0---|------0----|-0---|-0---|-0---|-------0--|----3-----2--|-0----|
G|-1---|----1----1-|-2---|-2---|-1---|-----1----|----2-----2--|-2----|
D|-2---|-----------|-1---|-1---|-2---|----------|----1-----1--|-1----|
A|-2---|-----------|-x---|-2---|-2---|----------|-2-----2-----|-2----|
E|-0---|-1---------|-2---|-----|-0---|-1--------|-------------|------|

e|-0---|-----------|-----|-----|--------|--------|
B|-0---|------0----|-0---|-0---|-3------|-2------|
G|-1---|----1----1-|-2---|-2---|-4------|-4------|
D|-2---|-----------|-1---|-1---|-4------|-3------|
A|-2---|-----------|-x---|-2---|-x------|-4------|
E|-0---|-1---------|-2---|-----|-4------|--------|

e|-0---|-----|-0--|-0----|-----|-----|-0--|-0----|-0---|-----|-4---|-----|-----2---|-----9---------|
B|-2---|-2---|-0--|-3----|-2---|-2---|-0--|-3----|-2---|-2---|-4---|-2---|-2-------|-8-------------|
G|-2---|-0---|-1--|-1----|-2---|-0---|-1--|-1----|-2---|-0---|-4---|-4---|-3-------|-8-------------|
D|-2---|-2---|-2--|-2----|-2---|-2---|-2--|-2----|-2---|-2---|-4---|-3---|-2-------|-7-------------|
A|-0---|-1---|-2--|-2----|-0---|-1---|-2--|-2----|-0---|-1---|-6---|-4---|---------|---------2h3h4-|
E|-----|-----|----|-0----|-----|-----|----|-0----|-----|-----|-4---|-----|-2-------|---------------|

[Instrumental]
e|--------------|--------------|--------------|--------------|
B|--------------|--------------|--------------|--------------|
G|--------------|--------------|--------------|--------------|
D|--------------|--------------|--------------|--------------|
A|-----2--4---2-|-----2--4---2-|-----2--4---2-|-5---2--4---2-|
E|-0------------|-1------------|-2------------|--------------|

e|--------------|--------------|--------------|--------------|
B|--------------|--------------|--------------|--------------|
G|--------------|--------------|--------------|--------------|
D|--------------|--------------|--------------|--------------|
A|-----2--4---2-|-----2--4---2-|-----2--4---2-|-5---2--4---2-|
E|-0------------|-1------------|-2------------|--------------|

[Chorus]
e|-0---|-----------|-----|-----|-0---|----------|-------------|------|
B|-0---|------0----|-0---|-0---|-0---|-------0--|----3-----2--|-0----|
G|-1---|----1----1-|-2---|-2---|-1---|-----1----|----2-----2--|-2----|
D|-2---|-----------|-1---|-1---|-2---|----------|----1-----1--|-1----|
A|-2---|-----------|-x---|-2---|-2---|----------|-2-----2-----|-2----|
E|-0---|-1---------|-2---|-----|-0---|-1--------|-------------|------|

e|-0---|-----------|-----|-----|--------|--------|
B|-0---|------0----|-0---|-0---|-3------|-2------|
G|-1---|----1----1-|-2---|-2---|-4------|-4------|
D|-2---|-----------|-1---|-1---|-4------|-3------|
A|-2---|-----------|-x---|-2---|-x------|-4------|
E|-0---|-1---------|-2---|-----|-4------|--------|

e|-0---|-----|-2---|-----|----|------|-----2---|-----9---------|
B|-2---|-2---|-2---|-2---|-3--|-2----|-2-------|-8-------------|
G|-2---|-0---|-2---|-2---|-4--|-4----|-3-------|-8-------------|
D|-2---|-2---|-2---|-1---|-4--|-3----|-2-------|-7-------------|
A|-0---|-1---|-4---|-2---|-x--|-4----|---------|---------2-3-4-|
E|-----|-----|-2---|-----|-4--|------|---------|---------------|

[Outro]
e|--------------|--------------|--------------|---------------|
B|--------------|--------------|--------------|---------------|
G|--------------|--------------|--------------|---------------|
D|--------------|--------------|--------------|---------------|
A|-----2--4---2-|-----2--4---2-|-----2--4---2-|----2--4--3--2-|
E|-0------------|-1------------|-2------------|---------------|

e|--------------|--------------|--------------|---------------|
B|--------------|--------------|--------------|---------------|
G|--------------|--------------|--------------|---------------|
D|--------------|--------------|--------------|---------------|
A|-----2--4---2-|-----2--4---2-|-----2--4---2-|----2--4--3--2-|
E|-0------------|-1------------|-2------------|---------------|

e|--------------|--------------|--------------|---------------|
B|--------------|--------------|--------------|---------------|
G|--------------|--------------|--------------|---------------|
D|--------------|--------------|--------------|---------------|
A|-----2--4---2-|-----2--4---2-|-----2--4---2-|----2--4--3--2-|
E|-0------------|-1------------|-2------------|---------------|

e|-0----|
B|-0----|
G|-1----|
D|-2----|
A|-2----|
E|-0----|            
Submit corrections


        Blue Shadows On The Trail lessons Hard to play? Try these video lessons and learn fast Blue Shadows On The Trail lessons
        
↑ Back to top | Tablatures and chords for acoustic guitar and electric guitar, ukulele, drums are parodies/interpretations of the original songs. You may use it for private study, scholarship, research or language learning purposes only