Home » R » Randy Houser »

Randy Houser - Running Out Of Moonlight Tabs

Artists:  A B C D E F G H I J K L M N O P Q R S T U V W X Y Z # 

Running Out Of Moonlight Tabs

(ver. 1) Click to play this song!
Randy Houser
Solo
Tuning:Standard                                     1step

e|---------------------------------------------------------------------------|
B|-------------------------------------------------14b-14r-------------------|
G|--------------11--/14--11----9------9--11---9----14b-14r--11-11--11--------|
D|-------12---/14-----------------12------------------------12h14p-12--------|
A|---------------------------------------------------------------------------|
E|--/10----------------------------------------------------------------------|
                       1step
e|---------------------------------------------------------------14----------|
B|---------------------14br--12--14--------------12------12--15--------------|
G|---------------------14br--12--14----/11---14------14----------------------|
D|-----------12--14----------------------------------------------------------|
A|--12--14-------------------------------------------------------------------|
E|---------------------------------------------------------------------------|
 
            
Submit corrections

↑ Back to top | Tablatures and chords for acoustic guitar and electric guitar, ukulele, drums are parodies/interpretations of the original songs. You may use it for private study, scholarship, research or language learning purposes only