Home » R » Randy Houser »

Randy Houser - Like A Cowboy Tabs

Artists:  A B C D E F G H I J K L M N O P Q R S T U V W X Y Z # 

Like A Cowboy Tabs

(ver. 1) Click to play this song!
Randy Houser
[Solo]  
 
     
D#|------------------------------------------------------------------------------|
A#|------------------------------------------------------------------------------|
F#|------------------------------------------------------------------------------|
C#|------------------------------------------------------------------------------|
G#|--3--5p3--5p3--5/7------------------------------------------------------------|
D#|\-----------------------------------------------------------------------------|

D#|------------------------------------------------------------------------------|
A#|--7b(8)-----------------------------------------------------------------------|
F#|------9b(11)--7---------------------------------------------------------------|
C#|------------------------------------------------------------------------------|
G#|------------------------------------------------------------------------------|
D#|\-----------------------------------------------------------------------------|

D#|------------------------------------------------------------------------------|
A#|10b(12)---10p7------10--------------------------------------------------------|
F#|----------------9-------9/11--------------------------------------------------|
C#|------------------------------------------------------------------------------|
G#|------------------------------------------------------------------------------|
D#|------------------------------------------------------------------------------|
                                                                          
                                                                I'll ride in on a sunny day,
D#|------------9-10----12----14----14b(16)|-----------14h15----------------------|
A#|------10-12------10----12----12--------|----14h15h17-----17b(19)--------------|
F#|10/11----------------------------------|14h16---------------------------------|
C#|---------------------------------------|--------------------------------------|
G#|---------------------------------------|--------------------------------------|
D#|---------------------------------------|--------------------------------------|
  
Sing you a song, steal your heart away
    D#|-x--x--x------------x--x--x------2--------------------------------------------------|
    A#|-x--x--x------------x--x--x------3--------------------------------------------------|
    F#|-12\11\7------------12\11\7------2--------------------------------------------------|
    C#|-x--x--x------------x--x--x------0--------------------------------------------------|
    G#|-10\9\-5------------10\9\-5------x--------------------------------------------------|
    D#|-x--x--x------------x--x--x------x--------------------------------------------------|

                  
Submit corrections

↑ Back to top | Tablatures and chords for acoustic guitar and electric guitar, ukulele, drums are parodies/interpretations of the original songs. You may use it for private study, scholarship, research or language learning purposes only