Home » R » Rancid »

Rancid - Time Bomb Bass

Artists:  A B C D E F G H I J K L M N O P Q R S T U V W X Y Z # 

Time Bomb Bass

(ver. 3) Click to play this song!
Rancid
Band- Rancid
Song- Time Bomb
Album- ...and out come the wolves

INTRO
G|------------------------------------
D|--------------------2-2-2-0---------
A|-2-2-2--------2-2-2-----------------
E|--------4-4-4-----------------------

VERSE
G|------------------------------------
D|-----0-4-2-4-2-0--------0----------- 
A|-2-4--------------4-2-4---4--------4
E|-----------------------------0-2-4--
	
CHORUS
G |-------------0022--4400------------
D |-----22--0044----22----4400--00----
A |-0044--44------------------44--44--
E |-----------------------------------

INTERLUDE
G|------------------------------------
D|-------2-0---0-1-2-0---2-0---0------
A|-----4-----4---------4-----4--------
E|-5-5--------------------------------

ENDING
G|------------------------------------
D|------------------------------------
A|------------------------------------
E|-5---5---5--------------------------

That’s it, but the only problem is getting the timing, but once you got that its fairly simple!
            
Submit corrections

↑ Back to top | Tablatures and chords for acoustic guitar and electric guitar, ukulele, drums are parodies/interpretations of the original songs. You may use it for private study, scholarship, research or language learning purposes only