» » »

Rancid - Maxwell Murder Bass

Artists:  A B C D E F G H I J K L M N O P Q R S T U V W X Y Z # 

Maxwell Murder Bass

(ver. 1) Click to play this song!
Rancid
 Rating:
4/5 (4 votes)
    Maxwell Murder lessons Tabs too difficult? Try these video lessons and learn fast
                                                        THE MAXWELL MURDER SOLO

My bass teacher tabbed this out for me and im pretty confident that its 100% correct.
I recommend listening to the song to get the timing right cause i'm not gonna lie it's a 
hard f**king solo.

------------------------------------------------------------------------------------


:-55---555---555---555---5----------------------------------------5-7-7-5---------------|
:---6h7---6h7---6h7---6h7--6-5-5-3-3/5-5-3-3-5-3-------3-3--5-6-7---------7-7-5-6-6-----|
:------------------------------------------------5-5-5-5--------------------------------|
:---------------------------------------------------------------------------------------|

:--------------------------5-------7-7-5--10----12--10---15-12-12-11-12-11-12-11---|
:5-3-3-3--------------------0-0-0-------0---0-0---0----0---------------------------|
:--------5-0-3-5-0--3-3--5---------------------------------------------------------|
:----------------------------------------------------------------------------------|

:----------------------------19-19-----17-17---16-----15-----14-----13-----12-----10---|
:12-12-10-11-12-12-10-12-0--------0-0-------0----0-0----0-0----0-0----0-0----0-0-------|
:--------------------------------------------------------------------------------------|
:--------------------------------------------------------------------------------------|

:--9---9---8---7------------|
:0---0---0---0---0-0-0---0- |
:-----------------------3---|
:---------------------------|

ONCE YOU HAVE MASTERED THIS SOLO YOU NO LONGER NEED TO TRY TO LEARN BASS because you 
will have mastered bass.
            
Submit corrections

↑ Back to top | Tablatures and chords for acoustic guitar and electric guitar, ukulele, drums are parodies/interpretations of the original songs. You may use it for private study, scholarship, research or language learning purposes only