Home » R » Ram Sampath »

Ram Sampath - Aigiri Nandini M Tv Coke Studio Season-3 Tabs

Artists:  A B C D E F G H I J K L M N O P Q R S T U V W X Y Z # 

Aigiri Nandini M Tv Coke Studio Season-3 Tabs

(ver. 1) Click to play this song!
Ram Sampath
 Rating:
2.6/5 (26 votes)
                E|---8\13-12--11\12/11----11--13--11\12/11----11-----------------------------|
B|---------------------13------------------13----13--11/8---8\13-------------|
G|---------------------------------------------------------------------------|
D|---------------------------------------------------------------------------|
A|---------------------------------------------------------------------------|
D|---------------------------------------------------------------------------|

E|---------------------------------------------------------------------------|
B|---11-11/8-8---8\11/8---8/6-8--6/5h6-5---6\12-12-12---11h12p11h12p11-------|
G|---------------------------------------------------------------------------|
D|---------------------------------------------------------------------------|
A|---------------------------------------------------------------------------|
D|---------------------------------------------------------------------------|

E|---------------------------------------------------------------------------|
B|---13~~~(Three times)--13b15br13--12-11h12p11/8--8\13/11----11/8h10p8------|
G|---------------------------------------------------------------------------|
D|---------------------------------------------------------------------------|
A|---------------------------------------------------------------------------|
D|---------------------------------------------------------------------------|

E|---------------------------------------------------------------------------|
B|---8/6-8----6/5h6-5---5-6-5-6-8-6-8-6-5-6-5-6-8-6-8-6-5-6-5-6-8-6-8-6------|
G|---------------------------------------------------------------------------|
D|---------------------------------------------------------------------------|
A|---------------------------------------------------------------------------|
D|---------------------------------------------------------------------------|

E|---------------------------------------------------------------------------|
B|---5-6-5-6-5/4----5-6-5-6-8-6-8-6-5-6-5-6-8-6-8-6-5-6-5-6-8\11-8-11--------|
G|---------------5-----------------------------------------------------------|
D|---------------------------------------------------------------------------|
A|---------------------------------------------------------------------------|
D|---------------------------------------------------------------------------|

E|---------------------------------------------------------------------------|
B|---8-6-8-6-5------5-6-5-6-8-6-8-6-5-6-5-6--5/4-----------------------------|
G|-----------------------------------------------5---------------------------|
D|---------------------------------------------------------------------------|
A|---------------------------------------------------------------------------|
D|---------------------------------------------------------------------------|

E|---------------------------------------------------------------------------|
B|-------5-------------------------------------------------------------------|
G|---5-8---8-5----5----------------------------------------------------------|
D|--------------8---8-7-5br--3br--2br0-2-------------------------------------|
A|---------------------------------------------------------------------------|
D|---------------------------------------------------------------------------|
            
Submit corrections

↑ Back to top | Tablatures and chords for acoustic guitar and electric guitar, ukulele, drums are parodies/interpretations of the original songs. You may use it for private study, scholarship, research or language learning purposes only