Home » R » Ramones »

Ramones - Take The Pain Away Bass

Artists:  A B C D E F G H I J K L M N O P Q R S T U V W X Y Z # 

Take The Pain Away Bass

(ver. 1) Click to play this song!
Ramones
Tuning: Standard

Intro
G|--------------------------------------------------------------------|
D|o------------------------------------------------------------------o|
A|o--5-5-5---8-8-8-------------------5-5-5---8-8-8-------------------o|
E|-------------------6-6-6-8---8-8-------------------8---8-8-8-8-8----|

Verse                                                        Repeat x4
G|--------------------------------------------------------------------|
D|o------------------------------------------------------------------o|
A|o--5-5-5---8-8-8-------------------5-5-5---8-8-8-------------------o|
E|-------------------6-6-6-8---8-8-------------------8---8-8-8-8-8----|

Chorus                       Repeat x3
G|------------------------------------|--------------------------------------|
D|o----------------------------------o|--------------------------------------|
A|o--5-5-5-5-5-5-5-5-----------------o|--------------------------------------|
E|-------------------6-6-6-8---8-8----|---6-6-6-6-6-6-6-6-6-6-6-6-6-6-6-6----|

                             Repeat x3
G|------------------------------------|---------------------------------------------------------------------|
D|o----------------------------------o|---------------------------------------------------------------------|
A|o--5-5-5-5-5-5-5-5-----------------o|---------------------------------------------------------------------|
E|-------------------6-6-6-8---8-8----|---6-6-6-6-6-6-6-6-6-6-6-6-6-6-6-6-8-8-8-8-8-8-8-8-8-8-8-8-8-8-8-8---|

Verse                                                        Repeat x4
G|--------------------------------------------------------------------|
D|o------------------------------------------------------------------o|
A|o--5-5-5---8-8-8-------------------5-5-5---8-8-8-------------------o|
E|-------------------6-6-6-8---8-8-------------------8---8-8-8-8-8----|

Chorus                       Repeat x3
G|------------------------------------|--------------------------------------|
D|o----------------------------------o|--------------------------------------|
A|o--5-5-5-5-5-5-5-5-----------------o|--------------------------------------|
E|-------------------6-6-6-8---8-8----|---6-6-6-6-6-6-6-6-6-6-6-6-6-6-6-6----|

                             Repeat x3
G|------------------------------------|---------------------------------------------------------------------|
D|o----------------------------------o|---------------------------------------------------------------------|
A|o--5-5-5-5-5-5-5-5-----------------o|---------------------------------------------------------------------|
E|-------------------6-6-6-8---8-8----|---6-6-6-6-6-6-6-6-6-6-6-6-6-6-6-6-8-8-8-8-8-8-8-8-8-8-8-8-8-8-8-8---|

G|--------------------------------------------------------------------|
D|o------------------------------------------------------------------o|
A|o--5-5-5---8-8-8-------------------5-5-5---8-8-8-------------------o|
E|-------------------6-6-6-8---8-8-------------------8---8-8-8-8-8----|

Guitar Solo
G|----------------------------------------------------------------------|
D|----------------------------------------------------------------------|
A|-----------------------------------8-8-8-8-8-8-8-8-8-8-8-8-8-8-8-8----|
E|---6-6-6-6-6-6-6-6-6-6-6-6-6-6-6-6------------------------------------|

G|----------------------------------------------------------------------|
D|----------------------------------------------------------------------|
A|----------------------------------------------------------------------|
E|---6-6-6-6-6-6-6-6-6-6-6-6-6-6-6-6-8-8-8-8-8-8-8-8-8-8-8-8-8-8-8-8----|

Chorus                       Repeat x3
G|------------------------------------|--------------------------------------|
D|o----------------------------------o|--------------------------------------|
A|o--5-5-5-5-5-5-5-5-----------------o|--------------------------------------|
E|-------------------6-6-6-8---8-8----|---6-6-6-6-6-6-6-6-6-6-6-6-6-6-6-6----|

                             Repeat x3
G|------------------------------------|---------------------------------------------------------------------|
D|o----------------------------------o|---------------------------------------------------------------------|
A|o--5-5-5-5-5-5-5-5-----------------o|---------------------------------------------------------------------|
E|-------------------6-6-6-8---8-8----|---6-6-6-6-6-6-6-6-6-6-6-6-6-6-6-6-8-8-8-8-8-8-8-8-8-8-8-8-8-8-8-8---|

G|-----------------|
D|-----------------|
A|-----------------|
E|---10~-----------|
            
Submit corrections

↑ Back to top | Tablatures and chords for acoustic guitar and electric guitar, ukulele, drums are parodies/interpretations of the original songs. You may use it for private study, scholarship, research or language learning purposes only