Home » R » Ramones »

Ramones - Palisades Park Bass

Artists:  A B C D E F G H I J K L M N O P Q R S T U V W X Y Z # 

Palisades Park Bass

(ver. 1) Click to play this song!
Ramones
Intro
G|--------------------------------------|
D|--------------------------------------|
A|--------------------------------------|
E|---3-3-3-3-3-3-3-3-0-0-0-0-0-0-0-0----|

Or if you want to play along with the guitar...
G|----------------------------------------------|
D|---5-4-3-2------------------------------------|
A|-----------6-5-4h5-4h5-7-6-5-4----------------|
E|-------------------------------8-7-6h7-6h7----|

Verse
G|----------------------------------------------------------------------|
D|o--------------------------------------------------------------------o|
A|o----------------------------------3-3-3-3-3-3-3-3-5-5-5-5-5-5-5-5---o|
E|---3-3-3-3-3-3-3-3-0-0-0-0-0-0-0-0------------------------------------|

G|----------------------------------------------------------------------|
D|----------------------------------------------------------------------|
A|---3-3-3-3-3-3-3-3-----------------3-3-3-3-3-3-3-3-5-5-5-5-5-5-5-5----|
E|-------------------0-0-0-0-0-0-0-0------------------------------------|

Chorus
G|----------------------------------------------------------------------|
D|----------------------------------------------------------------------|
A|-----------------------------------3-3-3-3-3-3-3-3-5-5-5-5-5-5-5-5----|
E|---3-3-3-3-3-3-3-3-0-0-0-0-0-0-0-0------------------------------------|

G|-----------------------------------------------------|
D|-----------------------------------------------------|
A|---3-3-3-3-3-3-3-3-----------------3-3-3-3-5---------|
E|-------------------0-0-0-0-0-0-0-0-------------------|

G|--------------------------------------|--------------------------------------|
D|o------------------------------------o|--------------------------------------|
A|o------------------------------------o|---3-3-3-3-5-5-5-5--------------------|
E|---3-3-3-3-3-3-3-3-0-0-0-0-0-0-0-0----|-------------------3-3-3-3-3-3-3-3----|

Verse
G|----------------------------------------------------------------------|
D|o--------------------------------------------------------------------o|
A|o----------------------------------3-3-3-3-3-3-3-3-5-5-5-5-5-5-5-5---o|
E|---3-3-3-3-3-3-3-3-0-0-0-0-0-0-0-0------------------------------------|

G|----------------------------------------------------------------------|
D|----------------------------------------------------------------------|
A|---3-3-3-3-3-3-3-3-----------------3-3-3-3-3-3-3-3-5-5-5-5-5-5-5-5----|
E|-------------------0-0-0-0-0-0-0-0------------------------------------|

Chorus
G|----------------------------------------------------------------------|
D|----------------------------------------------------------------------|
A|-----------------------------------3-3-3-3-3-3-3-3-5-5-5-5-5-5-5-5----|
E|---3-3-3-3-3-3-3-3-0-0-0-0-0-0-0-0------------------------------------|

G|-----------------------------------------------------|
D|-----------------------------------------------------|
A|---3-3-3-3-3-3-3-3-----------------3-3-3-3-5---------|
E|-------------------0-0-0-0-0-0-0-0-------------------|

                          Repeat to Fade
G|--------------------------------------|
D|o------------------------------------o|
A|o------------------------------------o|
E|---3-3-3-3-3-3-3-3-0-0-0-0-0-0-0-0----|
            
Submit corrections

↑ Back to top | Tablatures and chords for acoustic guitar and electric guitar, ukulele, drums are parodies/interpretations of the original songs. You may use it for private study, scholarship, research or language learning purposes only