Home » R » Ramones »

Ramones - Let's Dance Ukulele

Artists:  A B C D E F G H I J K L M N O P Q R S T U V W X Y Z # 

Let's Dance Ukulele

(ver. 1) Click to play this song!
Ramones
"-----------------------------------------------------------------------------
                             Let's dance - The Ramones
-----------------------------------------------------------------------------

Tuning:standard  EADGBe

Part 1
e|----------------------------------------------------------------------|
B|----------------------------------------------------------------------|
G|--------------------------------------7-7-7-7-7-7-7-7-7-7-7-7-7-7-7-7-|
D|------5-5-5-5-5-5-5-5-5-5-5-5-5-5-5-5-5-5-5-5-5-5-5-5-5-5-5-5-5-5-5-5-|
A|-5----3-3-3-3-3-3-3-3-3-3-3-3-3-3-3-3---------------------------------|
E|-3--------------------------------------------------------------------|

Prat 2
e|----------------------------------------------------------------------|
B|----------------------------------------------------------------------|
G|----------------------------------------------------------------------|
D|-7-7-7-7-7-7-7-7-5-5-5-5-5-5-5-5-7-7-7-7-7-7-7-7-5-5-5-5-5-5-5-5------| 
A|-5-5-5-5-5-5-5-5-3-3-3-3-3-3-3-3-5-5-5-5-5-5-5-5-3-3-3-3-3-3-3-3------|
E|----------------------------------------------------------------------|

Part 3
e|----------------------------------------------------------------------|
B|----------------------------------------------------------------------|
G|-7-7-7-7-7-7-7-7-7-7-7-7-7-7-7-7-7-7-7-7-7-7-7-7-7-7-7-7-7-7-7-7------|
D|-5-5-5-5-5-5-5-5-5-5-5-5-5-5-5-5-5-5-5-5-5-5-5-5-5-5-5-5-5-5-5-5------|
A|----------------------------------------------------------------------|
E|----------------------------------------------------------------------|

Part 4
e|------------------------------------------------------------------------|
B|------------------------------------------------------------------------|
G|------------------------------------------------------------------------|
D|---------------------------------7-7-7-7-7-7-7-7-10-10-10-10-10-10-10-10|
A|-5-5-5-5-5-5-5-5-9-9-9-9-9-9-9-9-5-5-5-5-5-5-5-5-8--8--8--8--8--8--8--8-|
E|-3-3-3-3-3-3-3-3-7-7-7-7-7-7-7-7----------------------------------------|

e|----------------------------------------------------------------------|
B|----------------------------------------------------------------------|
G|---------------------------------7-7-7-7-7-7-7-7-7-7-7-7-7-7-7-7------|
D|-8-8-8-8-8-8-8-8-8-8-8-8-8-8-8-8-5-5-5-5-5-5-5-5-5-5-5-5-5-5-5-5------|
A|-6-6-6-6-6-6-6-6-6-6-6-6-6-6-6-6--------------------------------------|
E|----------------------------------------------------------------------|

Order:
Part 1
part 2
part 3
part 1
part 2
part 3
part 4
part 2
part 3
part 1
part 2
part 3
part 1
part 2
part 3 X2  with harmonica in background
"            
Submit corrections

↑ Back to top | Tablatures and chords for acoustic guitar and electric guitar, ukulele, drums are parodies/interpretations of the original songs. You may use it for private study, scholarship, research or language learning purposes only