» » »

Rammstein - Rammstein Ramming Stone Tabs

Artists:  A B C D E F G H I J K L M N O P Q R S T U V W X Y Z # 

Rammstein Ramming Stone Tabs

(ver. 2) Click to play this song!
Rammstein
 Rating:
4/5 (4 votes)


 Rammstein Ramming Stone lessons Tabs too difficult? Try these video lessons and learn fast
 
                Track: 11

Tuning: E A D G B E

There are other versions of this song which are quite good but this 1 is definetly 100% correct

Tab Legend:

p.m....| = palm mute
/ = slide up to
\ = slide down to
h = hammer on
p = pull off

Intro:
Guitar 1
Keyboard arr. for Guitar.

E|----------------------------------|
B|----------------------------------|
G|----------------------------------|
D|----------------------------------|
A|---7-----------8---7-----------8--|
E|-------0---0-----------0---0------|
Repeat 4 Times

Intro:
Guitar 2 
w/disdortion

E|-----------------------------------------------|
B|-----------------------------------------------|
G|--------9/10--------9/10--------9/10---10\9----|
D|--------9/10--------9/10--------9/10---10\9----|
A|--------7/8---------7/8---------7/8-----8\7----|
E|--0--0--------0--0--------0--0-----------------|
p.m ....|      |....|      |....|
Repeat 3 Times then:

E|-----------------------------------------------|
B|-----------------------------------------------|
G|--------9/10--------9/10--------9/10-----------|
D|--------9/10--------9/10--------9/10-----------|
A|--------7/8---------7/8---------7/8------------|
E|--0--0--------0--0--------0--0-----------------|
p.m ....|      |....|      |....|

Main Riff:
w/distortion

E|-----------------------------------------------|
B|-----------------------------------------------|
G|--------9/10--------9/10--------9/10---10\9----|
D|--------9/10--------9/10--------9/10---10\9----|
A|--------7/8---------7/8---------7/8-----8\7----|
E|--0--0--------0--0--------0--0-----------------|
p.m ....|      |....|      |....|
Repeat 3 Times then:

E|-----------------------------------------------|
B|-----------------------------------------------|
G|--------9/10--------9/10--------9/10-----------|
D|--------9/10--------9/10--------9/10-----------|
A|--------7/8---------7/8---------7/8------------|
E|--0--0--------0--0--------0--0-----------------|
p.m ....|      |....|      |....|

Bridge 1:

E|---------------------------------------------------------------------|
B|---------------------------------------------------------------------|
G|---------------------------------------------------------------------|
D|-5-2--------------------5--2---------5--2---------------------5-2----|
A|-5-2--------2-2-2-2-2-2-5--2---------5--2---------2-2-2-2-2-2-5-2----|
E|-3-0--------0-0-0-0-0-0-3--0---------3--0---------0-0-0-0-0-0-3-0----|
         p.m ...........|                       p.m ...........|

Solo 1:
Guitar 1, plays solo
w/distortion & wah-wah
Guitar 2, plays main riff

E|--------------------------------------------------------------------------|
B|-------------------------------------7-7/9--9--9--------------------------|
G|--9-----9-----9----12---12-12-12\7---7-7/9--9--9--9/14--14---14/17--17----|
D|--------------------------------------------------------------------------|
A|--------------------------------------------------7/12--12---12/15--15----|
E|--------------------------------------------------------------------------|

E|--------------------------------------------------------------------------|
B|--------------------------------------------------------------------------|
G|--17\9---9---9/12---12-12\7--7---7---7/9--9---9----4--4--4--4--4--4--5--5-|
D|--------------------------------------------------------------------------|
A|--15\7---7---7/10---10-10\5--5---5---5/7--7---7----2--2--2--2--2--2--3--3-|
E|--------------------------------------------------------------------------|

E|-----------------------------------------------|
B|-----------------------------------------------|
G|--------9/10--------9/10--------9/10---10\9----|
D|--------9/10--------9/10--------9/10---10\9----|
A|--------7/8---------7/8---------7/8-----8\7----|
E|--0--0--------0--0--------0--0-----------------|
p.m ....|      |....|      |....|
Repeat Twice

Bridge 2:

E|-------------------------------------------------------------------------|
B|-------------------------------------------------------------------------|
G|-------------------------------------------------------------------------|
D|-5-2----------------------------------------5-----2----------------------|
A|-5-2----------------------------2-2-2-2-2-2-5-----2----------------------|
E|-3-0----------------------------0-0-0-0-0-0-3-----0----------------------|
                              p.m ...........|                       

Solo 2:
Guitar 1, plays solo
w/smooth mellow distortion & wah-wah
Guitar 2, plays main riff

E|-7p0-9p0-10p0-9p0-7p0-9p0-10p0-9p0-7p0-9p0-10p0-9p0-7p0-9p0-7p0-9p0-|
B|--------------------------------------------------------------------|
G|--------------------------------------------------------------------|
D|--------------------------------------------------------------------|
A|--------------------------------------------------------------------|
E|--------------------------------------------------------------------|
Repeat 3 Times then:

E|-7p0-9p0-10p0-9p0-7p0-9p0-10p0-9p0----------------------------------|
B|-----------------------------------7p0-8p0-10p0-8p0-5p0-7-h8-p7-----|
G|--------------------------------------------------------------------|
D|--------------------------------------------------------------------|
A|--------------------------------------------------------------------|
E|--------------------------------------------------------------------|

E|----------------------------------|
B|--------------------7h8-p7--------|
G|----------------------------------|
D|----------------------------------|
A|----------------------------------|
E|----------------------------------|

Outro:
w/distortion

E|----------------------------------|
B|----------------------------------|
G|--9-------/12--12--12\7-----------|
D|----------------------------------|
A|--7-------/10--10--10\5-----------|
E|----------------------------------|

E|----------------------------------------------------------------------------|
B|----------------------------------------------------------------------------|
G|--7/9--9--9/14--14--14--14/17--17--17--17--17p9-9-9-9--9-9-9--12-12-12-7--7-|
D|----------------------------------------------------------------------------|
A|--5/7--7--7/12--12--12--12/15--15--15--15--15p7-7-7-7--7-7-7--10-10-10-5--5-|
E|----------------------------------------------------------------------------|

E|----------------------------------------------------------------------------|
B|----------------------------------------------------------------------------|
G|--7/9--9-9-9-9-9--9\4--4--4-5-5-5-5--5/9--9-9-9--9-9-9--12-12-12--7-7-7-----|
D|----------------------------------------------------------------------------|
A|--5/7--7-7-7-7-7--7\2--2--2-3-3-3-3--3/7--7-7-7--7-7-7--10-10-10--5-5-5-----|
E|----------------------------------------------------------------------------|

E|----------------------------------------------------------------------------|
B|----------------------------------------------------------------------------|
G|--7/9--9-9-9--9-14-14-14-14-17-17-17-17-17\9-9-9--9-9-9-12-12-12--7-7-7-----|
D|----------------------------------------------------------------------------|
A|--5/7--7-7-7--7-12-12-12-12-15-15-15-15-15\7-7-7--7-7-7-10-10-10--5-5-5-----|
E|----------------------------------------------------------------------------|

E|----------------------------------------------------------------------------|
B|----------------------------------------------------------------------------|
G|--7/9--9-9-9--9-14-14-14-14-17-17-17-17-17\9-9-9--9-9-9-12-12-12--7-7-7-----|
D|----------------------------------------------------------------------------|
A|--5/7--7-7-7--7-12-12-12-12-15-15-15-15-15\7-7-7--7-7-7-10-10-10--5-5-5-----|
E|----------------------------------------------------------------------------|

E|----------------------------------------------------------------------------|
B|----------------------------------------------------------------------------|
G|--7/9--9-9-9--9\4--4-4-4-5-5-5-5--9-9-9-9-9-9-9-9----------9----------------|
D|-----------------------------------------------------------9----------------|
A|--5/7--7-7-7--7\2--2-2-2-3-3-3-3--7-7-7-7-7-7-7-7----------7----------------|
E|---------------------------------------------------0--0---------------------|
                                                 p.m ....|

Playing Order:

Intro 
Main Riff x2
Bridge 1
Main Riff x2
Solo 1
Main Riff x2
Bridge 2
Solo 2
Outro

That is the song 100% correct in my opinion, let me know if you have any corrections
            
Submit corrections



        Rammstein Ramming Stone lessons Hard to play? Try these video lessons and learn fast Rammstein Ramming Stone lessons
        
↑ Back to top | Tablatures and chords for acoustic guitar and electric guitar, ukulele, drums are parodies/interpretations of the original songs. You may use it for private study, scholarship, research or language learning purposes only