» » »

Asche Zu Asche Bass - Rammstein

Artists:  A B C D E F G H I J K L M N O P Q R S T U V W X Y Z # 

Asche Zu Asche Bass

(ver. 1) Click to play this song!
4/5 (4 votes)
    Asche Zu Asche  lessons Tabs too difficult? Try these video lessons and learn fast
Beginning is 
E --3-000-5-000-6-00-53--
A -----------------------
D -----------------------
G -----------------------

Then the SOLO is 

E ------00-----00-------00-----
A -----------------------------
D ---------14-------14---------
G ---12----------14---------15-
 thats was it a very simple song
Submit corrections

↑ Back to top | Tablatures and chords for acoustic guitar and electric guitar, ukulele, drums are parodies/interpretations of the original songs. You may use it for private study, scholarship, research or language learning purposes only