» » »

Rainbow - Street Of Dreams Bass

Artists:  A B C D E F G H I J K L M N O P Q R S T U V W X Y Z # 

Street Of Dreams Bass

(ver. 1) Click to play this song!
Rainbow
 Rating:
4/5 (4 votes)


 Street Of Dreams lessons Tabs too difficult? Try these video lessons and learn fast
 
                --------------------------------------------------------------------
                     STREET OF DREAMS - Rainbow
--------------------------------------------------------------------


Tuning:  E A D G

INTRO         x4        x3
|-------|-------|---------|--------|
|:------|------:|:-------:|------4-|
|:------|0-----:|:-------:|-----4-4|
|-2-----|---0---|-2--22---|2--22---|

VERSE 1
|-------|-------|-------|-------|-------|-------|-------|--------|
|-------|------4|-------|-------|-------|------4|-------|----2---|
|-------|-------|-------|-------|-------|-------|-------|0-04--24|
|2--22--|2--22--|2--22--|5--50--|2--22--|2--22--|2--22--|--------|

|-------|-------|-------|-----4-6|-------|-------2|------|
|-------|----02-|-------|--------|-------|-----02-|------|
|5--55-5|4--4--4|2--22--|2--02-4-|5--55--|4--44---|2--20-|
|-------|-------|------2|--------|-------|--------|------|

PRECHORUS             CHORUS 1
|----------|---------|---------|--------|----------|---------|------|------|
|:/22222222|222222--:|:------4-|--------|----------|--------:|------|------|
|:---------|------42:|:-----4-4|5--55---|----------|---47---:|------|5--7--|
|----------|---------|-2--22---|------5\|2--22-(2)/|5-----7\-|2-----|------|

VERSE 2
|-------|-------|-------|-------|-------|-------|-------|-------|
|------4|-------|-------|-------|------4|-------|-------|---2---|
|-------|-------|-------|-------|-------|-------|-------|0-4--24|
|2--22--|2--22--|2--22--|5--50--|2--22--|2--22--|2--22--|-------|

|--------|--------|-------|-----4-6|--------|-------2|-------|
|--------|-----02-|-------|--------|--------|-----02-|-------|
|5--55-75|4--44--4|2-22--0|2--02-4-|5--55-75|4--44---|2--20--|
|--------|--------|-----2-|--------|--------|--------|-------|

PRECHORUS 1           CHORUS 2
|----------|---------|--------|--------|----------|--------|
|:/22222222|222222--:|------4-|--------|----------|--------|
|:---------|------42:|-----4-4|5--55---|----------|--457---|
|----------|---------|2--22---|------5\|2--22-(2)/|5-----7\|

|--------|--------|----------|--------|--------|--------|----------|--------|
|------4-|--------|----------|--------|------4-|--------|----------|--------|
|-----4-4|5--55---|----------|--457---|-----4-4|5--55---|----------|--457---|
|2--22---|------5\|2--22-(2)/|5-----7\|2--22---|------5\|2--22-(2)/|55----7\|

BRIDGE 2
|------|------|------|---------|
|------|------|------|---2-----|
|------|0-----|------|004----20|
|2-----|---0--|2-----|-----44--|

SOLO    x3                x3
|---------|-------|---------|-------|
|:-------:|-------|:-------:|---2---|
|:-------:|-------|:-------:|0-0--24|
|-2--22---|5--50--|-2--22---|-------|

VERSE 3
|-------|-------|--------|-----4-6|--------|------2|------|
|-------|-------|--------|--------|--------|----02-|------|
|5--55-5|4-4454-|2--22--0|2--02-4-|5--55-75|4-44---|2---20|
|-------|-------|------2-|--------|--------|-------|------|

PRECHORUS 2
|---------|--------|--------|--------|
|/22222222|222222--|22222222|222-222-|
|---------|--------|--------|---2---2|
|---------|------0-|--------|--------|

CHORUS 2
|--------|--------|----------|--------|--------|--------|----------|--------|
|------4-|--------|----------|--------|------4-|--------|----------|--------|
|-----4-4|5--55---|----------|---47---|-----4-4|5--55---|----------|--457---|
|2--22---|------5\|2--22-(2)/|5-----7\|2--22---|------5\|2--22-(2)/|5-----7\|

|--------|--------|----------|--------|--------|--------|----------|--------|
|------4-|--------|----------|----2222|------4-|--------|----------|---02222|
|-----4-4|5--55---|----------|0000----|-----4-4|5--55---|----------|004-----|
|2--22---|------5\|2--22-(2)/|--------|2--22---|------5\|2--22-(2)/|--------|

                                      x4
|---------|--------|----------|---------|
|:------4-|--------|----------|----2222:|
|:-----4-4|5--55---|----------|0004----:|
|-2--22---|------5\|2--22-(2)/|---------|
            
Submit corrections



        Street Of Dreams lessons Hard to play? Try these video lessons and learn fast Street Of Dreams lessons
        
↑ Back to top | Tablatures and chords for acoustic guitar and electric guitar, ukulele, drums are parodies/interpretations of the original songs. You may use it for private study, scholarship, research or language learning purposes only