» » »

Rainbow - Since You Ve Been Gone Bass

Artists:  A B C D E F G H I J K L M N O P Q R S T U V W X Y Z # 

Since You Ve Been Gone Bass

(ver. 2) Click to play this song!
Rainbow
 Rating:
4/5 (4 votes)


 Since You Ve Been Gone lessons Tabs too difficult? Try these video lessons and learn fast
 
                Since You've Been Gone Bass Tab by Rainbow

Intro/Chorus

G|-----------------------|
D|---55---33---57-3-33-55|
A|333-------333----------|
E|-----555---------------|

Verse

G|----------------------------|
D|---55~---33~----5-7~-33-4-5~|
A|3~-----------3~-------------|
E|-------5--------------------|X2

Chorus

G|-----------------------|
D|---55---33---57-3-33-55|
A|333-------333----------|
E|-----555---------------|X2

Brigde

G|-----------7--------5-----|
D|---5-----------7----------|
A|-------7------------------|
E|--------------------------|

Fill

G|------|
D|---55-|
A|333---|
E|------|

Chorus
G|------------------------|
D|---55---33---5-7-3-33-55|
A|333-------333-----------|
E|-----555----------------|X2

SOLO

G|------------------------|
D|---55---33---5-7-3-33-55|
A|333-------333-----------|
E|-----555----------------|X2

Do a few more choruses and your done. Enjoy!
            
Submit corrections



        Since You Ve Been Gone lessons Hard to play? Try these video lessons and learn fast Since You Ve Been Gone lessons
        
↑ Back to top | Tablatures and chords for acoustic guitar and electric guitar, ukulele, drums are parodies/interpretations of the original songs. You may use it for private study, scholarship, research or language learning purposes only