» » »

Rage Against The Machine - Street Fighting Man Tabs

Artists:  A B C D E F G H I J K L M N O P Q R S T U V W X Y Z # 

Street Fighting Man Tabs

(ver. 1) Click to play this song!
Rage Against The Machine
 Rating:
4/5 (4 votes)
                This song has alot of sound effects in it, so it was hard to tab.
This song is in drop D

    Main Riff
e|------------------------------|
B|------------------------------|
G|----------------------19------|
D|------------------------------|
A|-----0------------------------|
D|-----0------------------------|

Chorus
e|---------------------------------------------------------------------------------|
B|---------------------------------------------------------------------------------|
G|---------------------------------------------------------------------------------|
D|---------------------------------------------------------------------------------|
A|------55-55-55-55-5-6-55-55-55-55-5-4-5----------------------------------------|
D|---------------------------------------------------------------------------------|
     Well then, what can a poor boy do…….


Interlude
e|---------------------------------------------------------------------------------|
B|---------------------------------------------------------------------------------|
G|--------------------------19--------20\\\\\\\------------------------------------|
D|---------------------------------------------------------------------------------|
A|--0000000------------------------------------------------------------------------|
D|--0000000------------------------------------------------------------------------|
P.M.*******


Outro
e|---------------------------------------------------------------------------------|
B|---------------------------------------------------------------------------------|
G|---------------------------------------------------------------------------------|
D|---------------------------------------------------------------------------------|
A|---0-0-0-0---12----0-0-0-0---10--------------------------------------------------|
D|---0-0-0-0---12----0-0-0-0---10--------------------------------------------------|
P.M. * * * *         * * * *


Have A Nice Day :-]
            
Submit corrections

↑ Back to top | Tablatures and chords for acoustic guitar and electric guitar, ukulele, drums are parodies/interpretations of the original songs. You may use it for private study, scholarship, research or language learning purposes only