» » »

Rage Against The Machine - Settle For Nothing Tabs

Artists:  A B C D E F G H I J K L M N O P Q R S T U V W X Y Z # 

Settle For Nothing Tabs

(ver. 1) Click to play this song!
Rage Against The Machine
 Rating:
4/5 (4 votes)


 Settle For Nothing lessons Tabs too difficult? Try these video lessons and learn fast
 
                Drop D

Intro/Riff 1:
e------------------------------------------------------------------
B------------------------------------------------------------------
G------------------------------------------------------------------
D---0-----0----------0-----0----------0-----0----------0-----0-----
A-------------2----------------1----------------0---------------1--
D------0----------------0----------------0----------------0--------

Chorus/crazy part(Distortion):
e-------------------------------
B-------------------------------
G-------------------------------
D-------------------------------
A----0---------------------------
D-2-----3--2--5--4------------
            
Submit corrections



        Settle For Nothing lessons Hard to play? Try these video lessons and learn fast Settle For Nothing lessons
        
↑ Back to top | Tablatures and chords for acoustic guitar and electric guitar, ukulele, drums are parodies/interpretations of the original songs. You may use it for private study, scholarship, research or language learning purposes only