» » »

Rage Against The Machine - Maggie's Farm Tabs

Artists:  A B C D E F G H I J K L M N O P Q R S T U V W X Y Z # 

Maggie's Farm Tabs

(ver. 2) Click to play this song!
Rage Against The Machine
 Rating:
4/5 (4 votes)
                mike strobel
maggies farm
rage against the machine
standard tuning (ebgdae)

intro
e-12--12--12--12--10--10--10--10---
b---12--12--12--12--12--12--12--12-
g----------------------------------
d----------------------------------
a----------------------------------
e----------------------------------

then
e---------------------------------------------------------
b---------------------------------------------------------
g---------------------------------------------------------
d---------------------------------------------------------
a--------------------------7--------------------5-----7-5-
e-7-7--10p7-7-7--7--10p7-7---7-7--10p7-7-7--5-7---7-5-----

for the verse play the same riff (palm muted) except dont 
play that last little part


e--------------------
b--------------------
g--------------------
d-99-xx-9-xx-9-xx-xx-
a-99-xx-9-xx-9-xx-xx-
e-77-xx-7-xx-7-xx-xx-

then play

e---------------------------------------------------------
b---------------------------------------------------------
g---------------------------------------------------------
d---------------------------------------------------------
a--------------------------7--------------------------7---
e-7-7--10p7-7-7--7--10p7-7---7-7--10p7-7-7--7--10p7-7-----

next riff

e-----------------0-0-0-0-0-0-0-0---------------------------------
b-2-2-2-2-2-2-2-2-0-0-0-0-0-0-0-0---------------------------------
g-2-2-2-2-2-2-2-2-1-1-1-1-1-1-1-1---------------------------------
d-2-2-2-2-2-2-2-2-2-2-2-2-2-2-2-2---------------------------------
a-0-0-0-0-0-0-0-0-2-2-2-2-2-2-2-2---------------------------------
e-----------------0-0-0-0-0-0-0-0---------------------------------

for the solo just make something up using the main riff with a lot
of effects play it in different octaves and stuff and it will sound
really cool. it works for me
the song structure is really simple just listen for the changes and you wont
have any problems
            
Submit corrections

↑ Back to top | Tablatures and chords for acoustic guitar and electric guitar, ukulele, drums are parodies/interpretations of the original songs. You may use it for private study, scholarship, research or language learning purposes only