» » »

Rage Against The Machine - Down On The Street Tabs

Artists:  A B C D E F G H I J K L M N O P Q R S T U V W X Y Z # 

Down On The Street Tabs

(ver. 3) Click to play this song!
Rage Against The Machine
 Rating:
4/5 (4 votes)
                DADGBE Tuning (Drop D)

Main Riff/Verses
-----------------

e|------------------------------------------------------------------------------|
B|------------------------------------------------------------------------------|
G|-----------------------------2b3r2-0--------------------------0-2-0-----------|
D|-------2-x-x-2-2-0-2--x-x-x--0----(0)-2--x-x--2-2-0-2-x-x-x---0-2-0-2---------|
A|-------2-x-x-2-2-0-2--x-x-x-----------2--x-x--2-2-0-2-x-x-x---------2---------|
D|-(14\)-2-x-x-2-2-0-2--x-x-x-----------2--x-x--2-2-0-2-x-x-x---------2---------|
                                                                              

Chorus
-------

e|--------------------|---------------------------------------------------------|
B|--------------------|---------------------------------------------------------|
G|-9-9--7-7-----------|--2-2-------2-2------------------------------------------|
D|-9-9--7-7--14-14-12-|--2-2--5-5--2-2--5--2------------------------------------|
A|-7-7--5-5--12-12-10-|--0-0--5-5--0-0--5--2------------------------------------|
D|--------------------|-------5-5-------5--2------------------------------------|
        

Solo
-----

This has ungodly amounts of wah, distortion, talkbox, whammy, and who
knows what else in there.  Try what I've transcribed here with at least
one of those effects, or it'll sound pretty cr*ppy.  Only wah or only
whammy doesn't sound too bad.                                                                    
e|-----------------------------|------x-x-x-x-x-x-x-|---------------------------|
B|-----------------------------|-8-8--x-x-x-x-x-x-x-|-10-8------10-8------------|
G|-----------------------------|-7-7--x-x-x-x-x-x-x-|------9-7-------9-7--------|
D|---------------------------5~|-6-6----------------|---------------------------|
A|-----------------------------|-7-7----------------|---------------------------|
D|--0-5-0-5-0-5-0-5-0-5-0-5----|--------------------|---------------------------|
                                                                              

Peace
-Tim
            
Submit corrections

↑ Back to top | Tablatures and chords for acoustic guitar and electric guitar, ukulele, drums are parodies/interpretations of the original songs. You may use it for private study, scholarship, research or language learning purposes only