» » »

Rage Against The Machine - Bulls On Parade Bass

Artists:  A B C D E F G H I J K L M N O P Q R S T U V W X Y Z # 

Bulls On Parade Bass

(ver. 3) Click to play this song!
Rage Against The Machine
 Rating:
4/5 (4 votes)


 Bulls On Parade lessons Tabs too difficult? Try these video lessons and learn fast
 
                I know that it is played half a step down, but for those of you with a low B that don't 
to, heres the tab:

Intro:


G|--------------------|
D|-3----3-3----3-3----|
A|--------------------|
E|---1------1------1--|
B|--------------------|

"Come With It now"
G|-------------------------|
D|-------------------------|
A|-------------------------|
E|-1-1-x-x-1-1-x-x---xxxxxx|
B|-------------------------|


Verse: "That microphone..."
G|-----------------------------|
D|-----------------------------|
A|-----------------------------|
E|------4~-6-4-----------------|
B|-4-6---------646~-6-4-6-5----|

Chorus: "Rally..."


(first part three times, second once)

G|-----------------------------------------|
D|------------|----------------------------|
A|------------|----------------------------|
E|------------|----------------------------|
B|-4h66-x-6---|--4-666-46------------------|

Interlude:


G|------------334----------|
D|---------------34--------|
A|-11-xx-11--------4-------|
E|-------------------------|
B|-------------------------|


G|---------3-1---1---------|
D|-------------3---3-1-----|
A|-11-xx-1-------------3---|
E|-------------------------|
B|-------------------------|


G|-------------------------|
D|---------1h33-1h33-1h3---|
A|-11-xx-1-----------------|
E|-------------------------|
B|-------------------------|


(note: 11's, 13's and 15's)
G|--------------------13h15-15-15-|
D|--------------------------------|
A|-11-xx-1--11h13-13--------------|
E|--------------------------------|
B|--------------------------------|


Solo=Verse Riff.


Outro:

G|-------------------------|
D|-------------------------|
A|-------------------------|
E|-11-xx-11-xxxxxx---------|
B|-------------------------|


G|--------------------|
D|-3----3-3----3-3----|
A|--------------------|
E|---1------1------1--|
B|--------------------|
            
Submit corrections



        Bulls On Parade lessons Hard to play? Try these video lessons and learn fast Bulls On Parade lessons
        
↑ Back to top | Tablatures and chords for acoustic guitar and electric guitar, ukulele, drums are parodies/interpretations of the original songs. You may use it for private study, scholarship, research or language learning purposes only