» » »

Rage Against The Machine - Bulls On Parade Tabs

Artists:  A B C D E F G H I J K L M N O P Q R S T U V W X Y Z # 

Bulls On Parade Tabs

(ver. 3) Click to play this song!
Rage Against The Machine
 Rating:
4/5 (4 votes)
                Tuning, (Eb, Ab, Db, Gb, Bb, Eb)

I play this is in standard
EADGBe

Intro/Outro:
e|------------------------------|
B|------------------------------|
G|------------------------------| 
D|---4------4--4------4--4------|
A|------------------------------|
E|------2~--------2~---------2--|

Intro 2: w/Wah Pedal (Up and down)
e|------------------------------------------|
B|------------------------------------------|
G|------------------------------------------|
D|------------------------------------------|
A|--4--4--x-x--4--4---x--x--x--x--x--x------|
E|--2--2--x-x--2--2---x--x--x--x--x--x------|

Verse: wah pedal forward
e|-------------------------------|--------------------|
B|-------------------------------|--------------------|
G|-------------------------------|--------------------|
D|-------------------------------|--------------------|
A|-------------0--------2-0------|--------------------|
E|-0---2---------------------0-2-|----2-0-----0-1-----|

Chorus:
e|----------------------------------------------------|
B|----------------------------------------------------|
B|----------------------------------------------------|
D|-4-4-4--4---x-4-4-4--4---4-4-4--4---x-4-4-4-4--4-4--|
A|-x-x-x--4---x-x-x-x--4---x-x-x--4---x-x-x-x-x--x-4--|
E|-3-2-2--2---x-0-2-2--2---3-2-2--2---x-0-2-2-2--0-2--|

Bridge: w/Wah pedal (Up and Down)
e|----------------------------------------------|
B|----------------------------------------------|
B|----------------------------------------------|
D|--9--9----x--x---9--9----x--x--x--x--x--x-----|
A|--9--9----x--x---9--9----x--x--x--x--x--x-----|
E|--7--7----x--x---7--7----x--x--x--x--x--x-----|

Solo
During the solo, Tom uses his Toggle switch technique while sliding his palm and 
fingertips over the 5th and 6th strings above the humbuckers. How I learned
this is listening to him do it over and over to get the rythym down, then
it will be easy just using your right hand sliding up and down the strings.
If you have a whammy bar, this also will help make a cooler sound out of it.
You can also press your wah pedal down to get a nice sound while doing this.
e|--------------------------------------
B|--------------------------------------
G|--------------------------------------
D|--------------------------------------
A|-/x-x\---/x-x-x\--/x\--/x-x-x\--/x-x\-
E|-/x-x\---/x-x-x\--/x\--/x-x-x\--/x-x\-

Thats about it, I think it sounds great when my band plays it
this way.  Try it out, let me know what you think!  Please
Rate!
            
Submit corrections

↑ Back to top | Tablatures and chords for acoustic guitar and electric guitar, ukulele, drums are parodies/interpretations of the original songs. You may use it for private study, scholarship, research or language learning purposes only