» » »

Rage Against The Machine - Bullet In The Head Tabs

Artists:  A B C D E F G H I J K L M N O P Q R S T U V W X Y Z # 

Bullet In The Head Tabs

(ver. 3) Click to play this song!
Rage Against The Machine
 Rating:
4/5 (4 votes)


 Bullet In The Head lessons Tabs too difficult? Try these video lessons and learn fast
 
                (Correct)
Ok, this is a great song by a great band.  This song was very tuff to figure out.  Every tab I have seen so far
has not been right.  So without further adu, Bullet in the Head.



Drop D tuning


The main riff/verse is all done with the Digitech Whammy (of course).  Just set your whammy 2 octaves up and hit
all of the strings.  Manipulate the sound with a tremolo arm (whammy bar) to lower the tone that is produced.It's 
that simple.  Just hit all the strings with the whammy set 2 octaves up.


This is the chorus:

e|-----------------------------------|
b|-----------------------------------|
g|-----------------------------------|
d|-----------------------------------|
a|------------------2---0------------|
d|---2-5-7------------5---2----b1---|



Then the solo is done with whammy and wah.  I don't have a guitar at the moment, so I can't give you the tab for
the solo.  However, I can tell you the very end with the crazy bends.  Here it is.


Put on some slapback delay, wah action, and tremolo pick the bends on 12 this:

         
e|---b12-b12-12-10----------b12-b12-12p-10-b17--12---|
b|-----------------12-10-----------------------------|
g|-----------------------12--------------------------|
d|---------------------------------------------------|
a|---------------------------------------------------|
d|---------------------------------------------------|



Ok now the cool part, the bridge.  Start with this palm muted.


e|-----------------------------------|
b|-----------------------------------|
g|-----------------------------------|
d|-----------------------------------|
a|--7-7-7-7-7-5----------------------|
d|--------------7-8-7-2-5-7-5-2-2-2--|


Then the same thing only power chords and that is it.


Exuent.
            
Submit corrections



        Bullet In The Head lessons Hard to play? Try these video lessons and learn fast Bullet In The Head lessons
        
↑ Back to top | Tablatures and chords for acoustic guitar and electric guitar, ukulele, drums are parodies/interpretations of the original songs. You may use it for private study, scholarship, research or language learning purposes only