» » »

Rage - Straight To Hell Tabs

Artists:  A B C D E F G H I J K L M N O P Q R S T U V W X Y Z # 

Straight To Hell Tabs

(ver. 1) Click to play this song!
Rage
 Rating:
3.4/5 (25 votes)

 Straight To Hell lessons Tabs too difficult? Try these video lessons and learn fast
 
                Intro:

e|---------------------------------------------------------------------------|
B|---------------------------------------------------------------------------|
G|---------------------------------------------------------------------------|
D|---3----2----1-------------------------------------------------------------|
A|---3----2----1-------------------------------------------------------------|
E|---3----2----1-------------------------------------------------------------|

e|---------------------------------------------------------------------------|
B|---------------------------------------------------------------------------|
G|---------------------------------------------------------------------------|
D|---------------------------------------------------------------------------|
A|---------------------------------------------------------------------------|
E|-3-0--0-0--3-0--0-0--2-3-4--3-0--0-0--5-6-7--3-0--0-0--2-3-4--3-0-0-0-0----|

e|---------------------------------------------------------------------------|
B|---------------------------------------------------------------------------|
G|---------------------------------------------------------------------------|
D|---3----2----1-------------------------------------------------------------|
A|---3----2----1-------------------------------------------------------------|
E|---3----2----1-------------------------------------------------------------|

e|---------------------------------------------------------------------------|
B|---------------------------------------------------------------------------|
G|---------------------------------------------------------------------------|
D|---------------------------------------------------------------------------|
A|---------------------------------------------------------------------------|
E|-3-0--0-0-0--2-3-4--3-0--0-0--5-6-7--3-0--0-0--2-3-4--3-0-0-0-0------------|

e|---------------------------------------------------------------------------|
B|---------------------------------------------------------------------------|
G|---------------------------------------------------------------------------|
D|---3----2----1-------------------------------------------------------------|
A|---3----2----1-------------------------------------------------------------|
E|---3----2----1-------------------------------------------------------------|


e|---------------------------------------------------------------------------|
B|---------------------------------------------------------------------------|
G|---5/6---7-----------------------------------------------------------------|
D|---5/6---7-------3--6--5--3/5----------------------------------------------|
A|---3/4---5-------3--6--5--3/5----------------------------------------------|
E|-----------------3--6--5--3/5----------------------------------------------|

e|---------------------------------------------------------------------------|
B|---------------------------------------------------------------------------|
G|---5/6---7-----------------------------------------------------------------|
D|---5/6---7-------3--6--5--3------------------------------------------------|
A|---3/4---5-------3--6--5--3------------------------------------------------|
E|-----------------3--6--5--3------------------------------------------------|

e|---------------------------------------------------------------------------|
B|---------------------------------------------------------------------------|
G|---5/6---7-----------------------------------------------------------------|
D|---5/6---7-------3--6--5--3/5----------------------------------------------|
A|---3/4---7-------3--6--5--3/5----------------------------------------------|
E|-----------------3--6--5--3/5----------------------------------------------|

e|---------------------------------------------------------------------------|
B|-------6--------8--------11------------------------------------------------|
G|-------5--------7--------10------------------------------------------------|
D|---3---3----5---5----8---8-------------------------------------------------|
A|---3--------5--------8-----------------------------------------------------|
E|---3--------5--------8-----------------------------------------------------|


e|---------------------------------------------------------------------------|
B|---------------------------------------------------------------------------|
G|---5/6---7-----------------------------------------------------------------|
D|---5/6---7-------3--6--5--3/5----------------------------------------------|
A|---3/4---5-------3--6--5--3/5----------------------------------------------|
E|-----------------3--6--5--3/5----------------------------------------------|

e|---------------------------------------------------------------------------|
B|---------------------------------------------------------------------------|
G|---5/6---7-----------------------------------------------------------------|
D|---5/6---7-------3--6--5--3------------------------------------------------|
A|---3/4---5-------3--6--5--3------------------------------------------------|
E|-----------------3--6--5--3------------------------------------------------|

e|---------------------------------------------------------------------------|
B|---------------------------------------------------------------------------|
G|---5/6---7-----------------------------------------------------------------|
D|---5/6---7-------3--6--5--3/5----------------------------------------------|
A|---3/4---7-------3--6--5--3/5----------------------------------------------|
E|-----------------3--6--5--3/5----------------------------------------------|

e|---------------------------------------------------------------------------|
B|-------6--------8--------11------------------------------------------------|
G|-------5--------7--------10------------------------------------------------|
D|---3---3----5---5----8---8-------------------------------------------------|
A|---3--------5--------8-----------------------------------------------------|
E|---3--------5--------8-----------------------------------------------------|


Verse:



e|---------------------------------------------------------------------------|
B|---------------------------------------------------------------------------|
G|---------------------------------------------------------------------------|
D|---------------------------------------------------------------------------|
A|---------------------------------------------------------------------------|
E|3-0--0-0--3-0--0-0--2-3-4--3-0--0-0--5-6-7--3-0--0-0--2-3-4--3-0-0-0-0-----|
  Hear me,   what i've got to say,      I know you and I get you anywhay.


e|---------------------------------------------------------------------------|
B|---------------------------------------------------------------------------|
G|---------------------------------------------------------------------------|
D|---------------------------------------------------------------------------|
A|---5--------5--------------------------------------------------------------|
E|---3--------2--------------------------------------------------------------|

e|---------------------------------------------------------------------------|
B|---------------------------------------------------------------------------|
G|---------------------------------------------------------------------------|
D|---------------------------------------------------------------------------|
A|---------------------------------------------------------------------------|
E|-3-0--0-0--3-0--0-0--2-3-4--3-0--0-0--5-6-7--3-0--0-0--2-3-4--3-0-0-0-0----|
   See me, walking by your side.           I'm with you forever day and night.


e|---------------------------------------------------------------------------|
B|---------------------------------------------------------------------------|
G|---------------------------------------------------------------------------|
D|---3---2---1---------------------------------------------------------------|
A|---3---2---1---------------------------------------------------------------|
E|---3---2---1---------------------------------------------------------------|


Chorus:



e|---------------------------------------------------------------------------|
B|---6-------------------------6--------5-------------------------5----------|
G|---7-------------------------7--------5-------------------------5----------|
D|---7-------------------------7--------5-------------------------5----------|
A|---------------------------------------------------------------------------|
E|--------0p--0p--0p--0p--0p-------0p--------0p--0p--0p--0p--0p----------0p--|
    Hey    man,                I'm your dark voice.

e|---------------------------------------------------------------------------|
B|---8-----------------7-------------------6-------------------5-------------|
G|---7-----------------7-------------------5-------------------5-------------|
D|---7-----------------7-------------------5-------------------5--------3-4-5|
A|---5-----------------5-------------------3-------------------3--------3-4-5|
E|----------------------------------------------------------------------3-4-5|
   You    dont       know     where        we     will        go.

e|---------------------------------------------------------------------------|
B|---6-------------------------6--------5-------------------------5----------|
G|---7-------------------------7--------5-------------------------5----------|
D|---7-------------------------7--------5-------------------------5----------|
A|---------------------------------------------------------------------------|
E|--------0p--0p--0p--0p--0p-------0p--------0p--0p--0p--0p--0p----------0p--|
    Hey    man,                I'm your dark voice.

e|---------------------------------------------------------------------------|
B|---8-----------------7-------------------6-------------------5-------------|
G|---7-----------------7-------------------5-------------------5-------------|
D|---7-----------------7-------------------5-------------------5--------3-4-5|
A|---5-----------------5-------------------3-------------------3--------3-4-5|
E|----------------------------------------------------------------------3-4-5|
   You    dont       know     where        we     will        go.

e|---------------------------------------------------------------------------|
B|---------------------------------------------------------------------------|
G|---------------------------------------------------------------------------|
D|----3---2----0--------------------------3---2---0--------------------------|
A|----3---2----0--------------------------3---2---0--------------------------|
E|----3---2----0--------------------------3---2---0--------------------------|            
Submit corrections


        Straight To Hell lessons Hard to play? Try these video lessons and learn fast Straight To Hell lessons
        
↑ Back to top | Tablatures and chords for acoustic guitar and electric guitar, ukulele, drums are parodies/interpretations of the original songs. You may use it for private study, scholarship, research or language learning purposes only