Home » R » Radio Moscow »

Radio Moscow - Speed Freak Tabs

Artists:  A B C D E F G H I J K L M N O P Q R S T U V W X Y Z # 

Speed Freak Tabs

(ver. 1) Click to play this song!
Radio Moscow
e|-------------------|--------------3-3-|
B|-------------------|--------------3-3-|
G|------3b-----------|-----3b-----------|   repeat 2x
D|-5p3------5p3------|5p3------5p3------|
A|----5--------5-3-4-|---5--------5-----|
E|-------------------|------------------|

e|--------------------|----------------|-------------------|--------------3-3-|
B|--------------------|----------------|-------------------|--------------3-3-|
G|--------------------|----------------|------3b-----------|-----3b-----------|
D|--------------------|----------------|-5p3------5p3------|5p3------5p3------|
A|-3p1--1---3p1--3p1--|3p1--1-3p1------|----5--------5-3-4-|---5--------5-----|
E|----3--------3----3-|---3------3-1-2-|-------------------|------------------|

                                |tripplet|
e|---------------------|----------------------|---------------|
B|---------------------|----------------------|---------------|
G|---------------------|------------------10b-|-----------3-4-|
D|-7p5--7p5--9p7--9p7--|-12p10---10-11-12-----|----------5----|
A|----7----7----9----9-|------12--------------|---------------|
E|---------------------|----------------------|---------------|            
Submit corrections

↑ Back to top | Tablatures and chords for acoustic guitar and electric guitar, ukulele, drums are parodies/interpretations of the original songs. You may use it for private study, scholarship, research or language learning purposes only