» » »

Radiohead - Lucky Tabs

Artists:  A B C D E F G H I J K L M N O P Q R S T U V W X Y Z # 

Lucky Tabs

(ver. 1) Click to play this song!
Radiohead
 Rating:
4.3/5 (20 votes)

 Lucky lessons Tabs too difficult? Try these video lessons and learn fast
 
                [Verse 1]
    Em    Am      G     Bm    Bm           Em      C       G    Bm     Em            Em         
E|--0-0--------|--3-3------|---------------0-0--|--3-3---3-3--|-----|--0--0h2-3-0--|--0-----3-0-0--|
A|--2-2---0-0--|--5-5---2--|--2------------2-2--|--5-5---5-5--|--2--|--2-------2---|--2--2p0--2-2--|
D|--2-2---2-2--|--5-5---4--|--4------------2-2--|--5-5---5-5--|--4--|--2-----------|--2-------2-2--|
G|----0---2-2--|----4---4--|--4--------------0--|----5-----4--|--4--|--0-----------|--0---------0--|
B|----0-----1--|----3---3--|--3---3----------0--|----3-----3--|--3--|--0-----------|--0---------0--|
e|----0-----0--|----3---2--|--2--0-0-(0)-----0--|----3-----3--|--2--|--0-----------|--0---------0--|

    Em    Am      G     Bm    Bm           Em      C       G    Bm     Em        
E|--0-0--------|--3-3------|---------------0-0--|--3-3---3-3--|-----|--0--0h2-3-0--|
A|--2-2---0-0--|--5-5---2--|--2------------2-2--|--5-5---5-5--|--2--|--2-------2---|
D|--2-2---2-2--|--5-5---4--|--4------------2-2--|--5-5---5-5--|--4--|--2-----------|
G|----0---2-2--|----4---4--|--4--------------0--|----5-----4--|--4--|--0-----------|
B|----0-----1--|----3---3--|--3---3----------0--|----3-----3--|--3--|--0-----------|
e|----0-----0--|----3---2--|--2--0-0-(0)-----0--|----3-----3--|--2--|--0-----------|


[Chorus]
    Em    A          Em    C   B
E|--0--|--0--|    |--0--|--3---2--|
A|--2--|--0--|    |--2--|--5---4--|
D|--2--|--2--|    |--2--|--5---4--|
G|--0--|--2--| X3 |--0--|--5---4--|
B|--0--|--2--|    |--0--|--3---2--|
e|--0--|--0--|    |--0--|--3---2--|


[Bridge 1]
    Em            Em
E|--0-------5--|--0-0--0b1--|
A|--2-2--5-4---|--2-2-------|
D|--2-2--------|--2-2-------|
G|----0--------|----0-------| X2
B|----0--------|----0-------|
e|-------------|------------|


[Verse 2]
    Em    Am      G     Bm    Bm                  Em      C       G     Bm    Em             Em         
E|--0-0--------|--3-3------|----------------------0-0--|--3-3---3-3--|-----|--0--0h2-3-0--|--0-----3-0-0--|
A|--2-2---0-0--|--5-5---2--|--2-------------------2-2--|--5-5---5-5--|--2--|--2-------2---|--2--2p0--2-2--|
D|--2-2---2-2--|--5-5---4--|--4-------------------2-2--|--5-5---5-5--|--4--|--2-----------|--2-------2-2--|
G|----0---2-2--|----4---4--|--4---------------------0--|----5-----4--|--4--|--0-----------|--0---------0--|
B|----0-----1--|----3---3--|--3-----(3)-------------0--|----3-----3--|--3--|--0-----------|--0---------0--|
e|----0-----0--|----3---2--|--2--(0)---(0)-(0)------0--|----3-----3--|--2--|--0-----------|--0---------0--|


    Em    Am      G     Bm    Bm                 Em      C       G    Bm     Em        
E|--0-0--------|--3-3------|---------------------0-0--|--3-3---3-3--|-----|--0--0h2-3-0--|
A|--2-2---0-0--|--5-5---2--|--2------------------2-2--|--5-5---5-5--|--2--|--2-------2---|
D|--2-2---2-2--|--5-5---4--|--4------------------2-2--|--5-5---5-5--|--4--|--2-----------|
G|----0---2-2--|----4---4--|--4--------------------0--|----5-----4--|--4--|--0-----------|
B|----0-----1--|----3---3--|--3-----(3)------------0--|----3-----3--|--3--|--0-----------|
e|----0-----0--|----3---2--|--2--(0)---(0)-(0)-----0--|----3-----3--|--2--|--0-----------|


[Chorus]
    Em    A          Em    C   B
E|--0--|--0--|    |--0--|--3---2--|
A|--2--|--0--|    |--2--|--5---4--|
D|--2--|--2--|    |--2--|--5---4--|
G|--0--|--2--| X3 |--0--|--5---4--|
B|--0--|--2--|    |--0--|--3---2--|
e|--0--|--0--|    |--0--|--3---2--|


[Bridge 2]
           E5      D       C       F#    G   F#
E|--0------0-----------------------2---2/3---2/--|    |--0~~--|
A|-----7---7--x-x--5--x-x--3--x-x--4---4/5---4/--|    |-------|   
D|-----5---9--x-x--7--x-x--5--x-x--4---4/5---4/--|    |-------| 
G|-----9---9--x-x--7--x-x--5--x-x--3---3/4---3/--| X5 |-------|
B|-----7------x-x--7--x-x--5--x-x----------------|    |-------|    
e|----(0)----------------------------------------|    |-------| 

                      OR
        F#5  E5       D        C        F#5   G   F#5
E|---0--14---12-------10-------8--------2---2/3---2/--|    |--0~~--|
A|------x----x--------x--------x--------x---x-----x---|    |-------|   
D|------16---14--x-x--12--x-x--10--x-x--4---4/5---4/--|    |-------|   
G|------x----x---x-x--x---x-x--x---x-x--x---x-----x---| X5 |-------|
B|-----(0)--(0)--x-x-(0)--x-x-(0)--x-x----------------|    |-------|   
e|---------------x-x------x-x------x-x----------------|    |-------| 

[Outro]
    Em    A          Em    C   B
E|--0--|--0--|    |--0--|--3---2--|
A|--2--|--0--|    |--2--|--5---4--|
D|--2--|--2--|    |--2--|--5---4--|
G|--0--|--2--| X3 |--0--|--5---4--|
B|--0--|--2--|    |--0--|--3---2--|
e|--0--|--0--|    |--0--|--3---2--|

            
Submit corrections


        Lucky lessons Hard to play? Try these video lessons and learn fast Lucky lessons
        
↑ Back to top | Tablatures and chords for acoustic guitar and electric guitar, ukulele, drums are parodies/interpretations of the original songs. You may use it for private study, scholarship, research or language learning purposes only