» » »

Radio Havanna - Stimme In Dir Tabs

Artists:  A B C D E F G H I J K L M N O P Q R S T U V W X Y Z # 

Stimme In Dir Tabs

(ver. 1) Click to play this song!
Radio Havanna
 Rating:
4/5 (4 votes)

 Stimme In Dir lessons Tabs too difficult? Try these video lessons and learn fast
 
                Stimme in Dir – Radio Havanna
(die angegebenen Akkorde werden alle als Powerakkorde gespielt)

Fade In mit Gitarre 1



Gitarre 1

e|-------------------------------------------------------------------------|
B--------------------------------------------------------------------------|
G|-------------------------------------------------------------------------|
D|-------------------------66666666------------------------66666666--------|
A|66666666699999999222222224444444466666666999999992222222244444444--------|
E|4444444447777777700000000--------444444447777777700000000----------------|
(gedämpft)
x2
(beim zweiten Mal setzt die zweite Gitarre ein)

Gitarre 2

e|-------------------------------------------------------------------------|
B|4---------------4----------------4---------------4-----------2-----------|
G|---4--3-4----------4--3-4-----------4--3-4----------4--3-4---------------|
D|----------------------------xxxx-----------------------------------------|
A|----------------------------xxxx-----------------------------------------|
E|-------------------------------------------------------------------------|


Strophe 1

Gitarre 1
--G#--------------B---------------E---------------C#-----------------------|
e|-------------------------------------------------------------------------|
B|-------------------------------------------------------------------------|
G|-------------------------------------------------------------------------|
D|111-------------111-------------111-------------111----------------------|
A|---2221122222222---2221122222222---2221122222222---2221122224444---------|
E|-------------------------------------------------------------------------|
(gedämpft)


Bass spielt die Grundtöne der Akkorde
Gitarre 2 setzt aus


G#       B                    E             C#            G#
 Deinen Herzschlag, hörst du lauter, immer lauter in dein Ohr,
        B                   E                  C#              G#
 Adrenalin fließt durch die Adern, du hast mehr Angst als je zuvor.



Gitarre 1
--G#--------------B---------------E---------------C#-----------------------|
e|-------------------------------------------------------------------------|
B|4-----7---------4---------------4-----7---------4------------------------|
G|---4---------------4--6------------4---------------4--6------------------|
D|-------------------------------------------------------------------------|
A|-------------------------------------------------------------------------|
E|-------------------------------------------------------------------------|





          B                E               C#                G#
 Bis eben warst du nur Passant, so wie die andren die hier stehen,
             B                E                      C#             G#
du konntest deinen Mund nicht halten und steckst nun mitten im Geschehen.


Gitarre 1 + 2

e|-------------------------------------------------------------------------|
B--------------------------------------------------------------------------|
G|-------------------------------------------------------------------------|
D|----------4----------------6---------------4-----------------------------|
A|66666-66-62-4----22222-22-24-6--66666-66-62-4----2-2-2-2-2-4-4-4-4-------|
E|44444-44-4--2----00000-00-0--4--44444-44-4--2----0-0-0-0-0-2-2-2-2-------|

Der erste Schlag, trifft dein Gesicht und deine
Stimme ganz tief in dir fragt


Refrain

G#           B                       E
Weißt du, wofür es sich lohnt, sich selbst zu überwinden,
        C#                         G#
wie ein echter, ein echter Held es tut?


Zwischenspiel (siehe Intro)



Strophe 2
(siehe Strophe 1)


Dein Herz schlug selten lauter, als in diesem einen Moment,
das Blut tropft auf den Bordstein und die Wut in dir sie brennt.

All die Passanten drum herum geht das hier absolut nichts an,
Verzweiflung wächst aus deiner Wut, du fällst zu boden und bist dran.

Der nächste Schlag, trifft dein Gesicht und deine,
Stimme ganz tief in dir fragt

Refrain

Weißt du, wofür es sich lohnt, sich selbst zu überwinden,
wie ein echter, ein echter Held es tut?
Was glaubst du, hast du das richtige probiert?
Hast du es allen gezeigt und oder einfach nur viel zu viel riskiert?







Instrumental



Gitarre 1

e|-------------------------------------------------------------------------|
B--------------------------------------------------------------------------|
G|------------------------------4---6--------------------------------------|
D|-------------6---9------------4---6--------------------------------------|
A|-----22------6---9---22-------2---4--------------------------------------|
E|-----00------4---7---00--------------------------------------------------|
riskiert...
x2

beim zweiten mal setzt die zweite Gitarre ein

Gitarre 2

e|-------------------------------------------------------------------------|
B|44444444444444444444444444444444-----------------------------------------|
G|-------------------------------------------------------------------------|
D|-------------------------------------------------------------------------|
A|-------------------------------------------------------------------------|
E|-------------------------------------------------------------------------|

Gitarre 1: Pickslide


Strophe 3


G#          B           E             C#            G#
 Bei halbem Bewusstsein, fällst du zu Boden in den Dreck,
         B                 E
und alle, die hier stehen, lesen lieber Zeitung und sehen weg!


Der nächste Schlag, in dein Gesicht,
und deine Stimme ganz tief in der fragt...

Refrain


Weißt du, wofür es sich lohnt, sich selbst zu überwinden,
wie ein echter, ein echter Held es tut?
Was glaubst du, hast du das Richtige probiert?
Hast du es allen gezeigt oder einfach nur viel zu viel riskiert?

Oder viel zu viel riskiert?

G#
 Viel zu viel riskiert?!
            
Submit corrections


        Stimme In Dir lessons Hard to play? Try these video lessons and learn fast Stimme In Dir lessons
        
↑ Back to top | Tablatures and chords for acoustic guitar and electric guitar, ukulele, drums are parodies/interpretations of the original songs. You may use it for private study, scholarship, research or language learning purposes only