» » »

Radio 4 - As Far As The Eye Can See Bass

Artists:  A B C D E F G H I J K L M N O P Q R S T U V W X Y Z # 

As Far As The Eye Can See Bass

(ver. 1) Click to play this song!
Radio 4
 Rating:
4/5 (4 votes)


 As Far As The Eye Can See lessons Tabs too difficult? Try these video lessons and learn fast
 
                Band: Radio 4
Bassist: Anthony Roman

/=slide
h= hammer
p= pull off
*=accent

INTRO/VERSE:

g ----11-----------4-----7--7----------|
d -------7h9p7-------------------------|
a -/9------------2---2/5--5------------|
E -------------------------------------|


cHORUS:

g ---------------------------------------------------------|
d ---------------------------------------------------------|
a -5-5-5--5--5-5-5--5-------------------2-2-2--2--2-2-2--2-|
E --------------------2-2-2--2--2-2-2-2--------------------|


g ---------------------------|
d -----------4-0h2h4-0-------|x2
a ---------------------------|
E -2-2-2--2------------------|

AFTER CHORUS:

g ----11-----------4-----7--7----------|
d -------7h9p7-------------------------|
a -/9------------2---2/5--5------------|X1
E -------------------------------------|

g ----11-----------4-----7------|
d -------7h9p7------------------|
a -/9------------2---2/5---5*---|X1
E ------------------------------|


2ND VERSE:

g ----11-----------4-----7--7----------|
d -------7h9p7-------------------------|
a -/9------------2---2/5--5------------|
E -------------------------------------|


2ND cHORUS:

g ---------------------------------------------------------|
d ---------------------------------------------------------|
a -5-5-5--5--5-5-5--5-------------------2-2-2--2--2-2-2--2-|
E --------------------2-2-2--2--2-2-2-2--------------------|


g ---------------------------|
d -----------4-0h2h4-0-------|x2
a ---------------------------|
E -2-2-2--2------------------|

..AND THEN A SMALL VARIATION:


g ---------------------------------------------------------|
d --------------------4-4-4--4--4-4-4--4-------------------|
a -5-5-5--5--5-5-5--5-------------------2-2-2--2--2-2-2--2-|
E ---------------------------------------------------------|


g ---------------------------|
d -----------4-0h2h4-0-------|x2
a ---------------------------|
E -2-2-2--2------------------|


INTERLUDE:

g -------------------------------------|
d -------------------------------------|
a -5-5-5--5--5-5-5--5-9-9-9--9--9-9-9--|
E -------------------------------------|

g ------------------------------------------------|
d ------------------------------------------------|
a -14-14-14--14--14-14-14--14-9-9-9--9--9-9-9--9--|
E ------------------------------------------------|

AND IT ENDS WITH SOMETHING LIKE THE CHORUS:

g ---------------------------------------------------------|
d --------------------4-4-4--4--4-4-4--4-------------------|
a -5-5-5--5--5-5-5--5-------------------2-2-2--2--2-2-2--2-|
E ---------------------------------------------------------|


g ---------------------------|
d -----------4-0h2h4-0-------|x...
a ---------------------------|
E -2-2-2--2------------------|


GREAT SONG! AMAZING BASS LINE
            
Submit corrections



        As Far As The Eye Can See lessons Hard to play? Try these video lessons and learn fast As Far As The Eye Can See lessons
        
↑ Back to top | Tablatures and chords for acoustic guitar and electric guitar, ukulele, drums are parodies/interpretations of the original songs. You may use it for private study, scholarship, research or language learning purposes only