» » »

Rachel Stamp - Monsters Of The New Wave Bass

Artists:  A B C D E F G H I J K L M N O P Q R S T U V W X Y Z # 

Monsters Of The New Wave Bass

(ver. 1) Click to play this song!
Rachel Stamp
 Rating:
4/5 (4 votes)
                Rachel Stamp (from the album "rachel stamp")

Monsters of the new wave bass tab.


You'll have to listen to the song to get the idea... and the order.


basic riff
G:-----------------------------
D:-----------------------------
A:-4-4-4-4-4-4-----------------
E:---------------4-4-4---0-0-0-


pre-chorus (I don't care...)
G:----------------------------------------
D:----------------------------------------
A:-7----7/12-12-12-12\7--7-7--------------
E:---------------------------4-4-4-4-4-4--


Chorus (I'm in love...)
G:---------------------------------
D:---------------------------------
A:-4-4-4-4-4-4-4-4-----------------
E:-----------------4-4-4-4-0-0-0-0-


second pre-chorus (I don't care...)
G:----------------------------------------
D:----------------------------------------
A:-7----7/12-12-12-12\7--7-7/6-6-6-6-6-6--
E:----------------------------------------


solo:
G:---------------------------
D:---------------------------
A:-4-6-4-6-4---------7-7-6-4-
E:-------------4-6-4---------


(life is cruel enough...)
G:----------------------------------------------------
D:----------------------------------------------------
A:---4-----4-----4---------------------------4-4-4-4--
E:-6--4--6--4--6--4--4-4-4-4-4-4-4-4-6-6-6-6----------
            
Submit corrections

↑ Back to top | Tablatures and chords for acoustic guitar and electric guitar, ukulele, drums are parodies/interpretations of the original songs. You may use it for private study, scholarship, research or language learning purposes only