Home » R » Rachel Platten »

Rachel Platten - Fight Song Bass

Artists:  A B C D E F G H I J K L M N O P Q R S T U V W X Y Z # 

Fight Song Bass

(ver. 1) Click to play this song!
Rachel Platten
CHORUS

 ...fight song

G|---------------------------------------------------------------------------|
D|---------5-5-5-5-5-5-5-5--0-0-0-0-0-0-0-0--2-2-2-2-2-2-2-2-----------------| X2
A|------------------------------------------------------------3-3-3-3-3-3-3-3|
E|---------------------------------------------------------------------------|

 believes

G|---------------------------------------------------------------------------|
D|--5-5-5-5--0-0-0-0---------------------------------------------------------|
A|---------------------------------------------------------------------------|
E|---------------------------------------------------------------------------|

VERSE 2

G|---------------------------------------------------------------------------|
D|-2-2-2-2-2-2-2-2-----------------5-5-5-5-5-5-5-5--0-0-0-0-0-0-0-0----------| X2
A|-----------------3-3-3-3-3-3-3-3-------------------------------------------|
E|---------------------------------------------------------------------------|

POST CHORUS

G|---------------------------------------------------------------------------|
D|-5-5-5-5----------2-2-2-2--0-0-0-0---5-5-5-5-------------------------------|
A|----------3-3-3-3-----------------------------3-3-3-3----------------------|
E|---------------------------------------------------------------------------|

CHORUS

G|---------------------------------------------------------------------------|
D|---------5-5-5-5-5-5-5-5--0-0-0-0-0-0-0-0--2-2-2-2-2-2-2-2-----------------| X2
A|------------------------------------------------------------3-3-3-3-3-3-3-3|
E|---------------------------------------------------------------------------|

G|---------------------------------------------------------------------------|
D|-5--5--0--0-----5-5-5-5-5-5-5-5-----------------5-5-5-5-5-5-5-5------------|
A|--------------------------------3-3-3-3-3-3-3-3----------------------------|
E|---------------------------------------------------------------------------|

G|---------------------------------------------------------------------------|
D|--00000000000000000000000--------------------------------------------------|
A|---------------------------------------------------------------------------|
E|---------------------------------------------------------------------------|

CHORUS

my power's turned on
G|---------------------------------------------------------------------------|
D|---------5-5-5-5-5-5-5-5--0-0-0-0-0-0-0-0--2-2-2-2-2-2-2-2-----------------| 
A|------------------------------------------------------------3-3-3-3-3-3-3-3|
E|---------------------------------------------------------------------------|

G|---------------------------------------------------------------------------|
D|---5--------0---------0--------------5-------------------------------------|
A|---------------------------------------------------------------------------|
E|---------------------------------------------------------------------------|
            
Submit corrections

↑ Back to top | Tablatures and chords for acoustic guitar and electric guitar, ukulele, drums are parodies/interpretations of the original songs. You may use it for private study, scholarship, research or language learning purposes only