» » »

Quo Vadis - Rasputin Tabs

Artists:  A B C D E F G H I J K L M N O P Q R S T U V W X Y Z # 

Rasputin Tabs

(ver. 1) Click to play this song!
Quo Vadis
 Rating:
4/5 (4 votes)


 Rasputin lessons Tabs too difficult? Try these video lessons and learn fast
 
                Rasputin by Quo Vadis

Tuning
DGCFAD (low to high)

h-hammer on
p-pull-off

Guitar 1

Riff 1
D|---------------------------------------|
A|--1----1---1h3p1-----------------------|
F|-------------------------3h5-3p0h3-----|
C|---------------------------------------|
G|---------------------------------------|
D|---------------------------------------|


Riff 2
D|---------------------------------------------|
A|---------------------------------------------|
F|---------------------------------------------|
C|---------------------------------------------|
G|-9--9--7---7----5---5--4---4--9---9--7---7---|
D|-7--7--5---5----3---3--2---2--7---7--5---5---|


Riff 3
D|--------------------------------------------|
A|--------------------------------------------|
F|--------------------2---4--2h4p2------------|
C|--------------2h4h5--------------4---2--4---|
G|-2--2---2h4h5-------------------------------|
D|--------------------------------------------|


Riff 4
D|---------------------------------------------------------------|
A|---------------------------------------------------------------|
F|---------------------2-----------------------------------------|
C|---4--4--4--5--5---4---4-------2--2--2-----------2--2h4p2------|
G|-2-----------------------4---5--------------4--5----------4-2--|
D|---------------------------------------------------------------|

Riff 5
D|------------------------------------------|
A|------------------------------------------|
F|------------------------------------------|
C|--------2--4-5-4-2------------------------|
G|-2--4-5------------5--2-4--5-4--2-1-2--4--|
D|------------------------------------------|


Riff 6
D|-----------------------------------------------------------------|
A|-----------------------------------------------------------------|
F|-----------------------------------------------------------------|
G|-9-9-7--7--7--6---6---6--6--9---9--9--7--7--7--6--6---9--9--7--9-|
D|-7-7-5--5--5--4---4---4--4--7---7--7--5--5--5--4--4---7--7--5--7-|


Riff 7
D|---------------------------------------------|
A|-0~-3~--7~--5~-3-5--7~-3--5--3--2--0~~-------|
F|---------------------------------------------|
C|---------------------------------------------|
G|---------------------------------------------|
D|---------------------------------------------|

Order
Riff 1 x16, with riff 4 after 5x
Riff 2 x1
Riff 3 x2
Riff 4 x2
Riff 5 x2
Riff 6 x2
Riff 3 x2
Riff 4 x4
Riff 3 x2
Riff 6 x2
Riff 7 x2
Riff 3 x2
Riff 4 x2
Riff 5 x2
Riff 6 x4
and thats all, please comment, this is one of my first tabs..second come to think of 
yeah
            
Submit corrections



        Rasputin lessons Hard to play? Try these video lessons and learn fast Rasputin lessons
        
↑ Back to top | Tablatures and chords for acoustic guitar and electric guitar, ukulele, drums are parodies/interpretations of the original songs. You may use it for private study, scholarship, research or language learning purposes only