» » »

Queens Of The Stone Age - You Can't Quit Me Baby Tabs

Artists:  A B C D E F G H I J K L M N O P Q R S T U V W X Y Z # 

You Can't Quit Me Baby Tabs

(ver. 2) Click to play this song!
Queens Of The Stone Age
 Rating:
4/5 (4 votes)
                ------------------------------------------------------------------------------
                             You can't quit me baby - Queens of the Stone Age
-------------------------------------------------------------------------------

Tuning: Standard

Info: This song is normally tuned two whole steps down, but i figured i would make it a 
easier on people and tab it in standard.

Intro/Verse:

e|---------------------------------------------------------------------------|
B|---------------------------------------------------------------------------|
G|------8-----8----8-----8--------5----5----5-3h5/8--------------------------|
D|---------------------------------------------------------------------------|
A|--6-6----6----6----6----6--3-3----3----3-----------------------------------|
E|---------------------------------------------------------------------------|

End of Verse fill:

e|---------------------------------------------------------------------------|
B|---------------------------------------------------------------------------|
G|--10101010101010109-9-9-9-9-9-9-9-9-9-9-9-9-9-9-9--------------------------|
D|---------------------------------------------------------------------------|
A|--8-8-8-8-8-8-8-8-7-7-7-7-7-7-7-7-7-7-7-7-7-7-7-7--------------------------|
E|---------------------------------------------------------------------------|

Fill before solo:

e|---------------------------------------------------------------------------|
B|----------------------------6----------------------------------------------|
G|--5/8------8\5------5/8--------5-------------------------------------------|
D|---------------------------------------------------------------------------|
A|---------------------------------------------------------------------------|
E|---------------------------------------------------------------------------|

Little solo riff:

e|----------------------------------------------------------8b-8b------------|
B|--10b--------10--10b--------10--10b--------10--10b-------------------------|
G|------9b-------------9b-------------9b-------------9b----------------------|
D|---------7b-------------7b-------------7b-------------7b-------------------|
A|---------------------------------------------------------------------------|
E|---------------------------------------------------------------------------|

Riff before ending solo:
e|---------------------------------------------------------------------------|
B|---------------------------------------------------------------------------|
G|--5-5-5-5-5-5-5-5-4-4-4-4-4-4-4-4-101010101010101010101010101010h12--------|
D|---------------------------------------------------------------------------|
A|--3-3-3-3-3-3-3-3-2-2-2-2-2-2-2-2-8-8-8-8-8-8-8-8-8-8-8-8-8-8-8-h10--------|
E|---------------------------------------------------------------------------|

Thats as far as im going to tab it because the ending solo in this song is pretty random 
i dont feel like taking the time to figure it out. As for the rest of the song, listen 
the song and get the rhythms down and how many times to repeat each riff. Good luck.

El Drew


| /  slide up
| \  slide down
| h  hammer-on
| p  pull-off
| ~  vibrato
| +  harmonic
| x  Mute note
===============================================================================
            
Submit corrections

↑ Back to top | Tablatures and chords for acoustic guitar and electric guitar, ukulele, drums are parodies/interpretations of the original songs. You may use it for private study, scholarship, research or language learning purposes only