» » »

Queens Of The Stone Age - I Wanna Make It Wit Chu Bass

Artists:  A B C D E F G H I J K L M N O P Q R S T U V W X Y Z # 

I Wanna Make It Wit Chu Bass

(ver. 1) Click to play this song!
Queens Of The Stone Age
 Rating:
4/5 (4 votes)


 I Wanna Make It Wit Chu lessons Tabs too difficult? Try these video lessons and learn fast
 
                -----------------------------------------------------------------------------
		               MAKE IT WIT CHU - Queens Of The Stone Age
-----------------------------------------------------------------------------


Tuning:EADG

I know this is an easy song but the first version is rubbish.

Intro                                               This pops up sometimes
                                                                |
G|---------------------------|--------------------|----|       -- |
D|---------------------------|--------------------|----|--------- |
A|----------------2-2-2-0-00-|--/77--/77--/77--/77|-7-7---------- |
E|3-3-3-3-3-3-3-3------------|00---00---00---00---|0-0----------- |

Chorus
G|---------------------------|--------------------|----|
D|---------------------------|--------------------|----|
A|----------------2-2-2-0-00-|--/77--/77--/77--/77|-7-7|
E|3-3-3-3-3-3-3-3------------|00---00---00---00---|0-0-|

Solo
G|---------------------------|--------------------|------------|
D|---------------------------|--------------------|------------|
A|----------------2-2-2-0-00-|--/77--/77--/77--/77|-7-7-7-7-7-7|
E|3-3-3-3-3-3-3-3------------|00---00---00---00---|0-0-0-0-0-0-|

That is basically that. The bits on the end are the parts where the drummer does a 
fill but it is quite obvious when you have to play those bits.

Have Fun!
            
Submit corrections



        I Wanna Make It Wit Chu lessons Hard to play? Try these video lessons and learn fast I Wanna Make It Wit Chu lessons
        
↑ Back to top | Tablatures and chords for acoustic guitar and electric guitar, ukulele, drums are parodies/interpretations of the original songs. You may use it for private study, scholarship, research or language learning purposes only