» » »

Pure Prairie League - Amie(another Tabs

Artists:  A B C D E F G H I J K L M N O P Q R S T U V W X Y Z # 

Amie(another Tabs

(ver. 1) Click to play this song!
Pure Prairie League
 Rating:
4/5 (4 votes)

 Amie(another lessons Tabs too difficult? Try these video lessons and learn fast
 
                (Sion)

This is just another version of the intro the way I like to
play it. I just have a couple different notes in this than 
previously posted versions. This is a really fun song to play 
and sing. Let me know what ya'll think.

e-----------------------------------------------------------
b-----------------------------------------------------------
g------------------9-11-9-----------------------------------
d-----7-7-9p7-9/11--------11p9/7--------7--7-9p7-9/11-9-9---
a-7h9-------------------------------7h9---------------------
E-----------------------------------------------------------

e-----------------------------------------------------------------
b------------------------------10h12p10---------------------------
g-------------------9-11-9---------------11-9h11p9----------------
d-----7--7-9p7-9/11--------11-----------------------11-9h11p9-7-7-
a-7h9-------------------------------------------------------------
E-----------------------------------------------------------------

e-----------------x--x-x---3---3-3---2---2-2---------------
b-----------------2--x-x---3---3-3---3---3-3---------------
g-----------------2--x-x---0---0-0---2---2-2---------------
d-9p7-------------2--x-x---0---0-0---0---0-0---------------
a-----9p7--7/2---0---x-x---2---2-2---x---x-x---------------
E----------------x---x-x---3---3-3---x---x-x---------------
            
Submit corrections


        Amie(another lessons Hard to play? Try these video lessons and learn fast Amie(another lessons
        
↑ Back to top | Tablatures and chords for acoustic guitar and electric guitar, ukulele, drums are parodies/interpretations of the original songs. You may use it for private study, scholarship, research or language learning purposes only