» » »

Fegato Centenario Bass - Punkreas

Artists:  A B C D E F G H I J K L M N O P Q R S T U V W X Y Z # 

Fegato Centenario Bass

(ver. 1) Click to play this song!
4/5 (4 votes)
    Fegato Centenario lessons Tabs too difficult? Try these video lessons and learn fast

                                Fegato Centenario

                                   da Isterico

 G -------------------------------------|---------------------------------
 D -------------------------------------|-----------------------44-55-77--
 A ----------3-3-3---------55-33-22-33--|--------3-3-3-------55-----------
 E ---5-5-5---------3-3-3---------------|--5-5-5-------3-3-3--------------

 G -------------------------------
 D -------------------------------
 A -------------------------------
 E ---5-5-5--1-1-1--3-3-3--0-0-0--
Submit corrections

↑ Back to top | Tablatures and chords for acoustic guitar and electric guitar, ukulele, drums are parodies/interpretations of the original songs. You may use it for private study, scholarship, research or language learning purposes only