» » »

Pulp - Sorted For Es Chords

Artists:  A B C D E F G H I J K L M N O P Q R S T U V W X Y Z # 

Sorted For Es Chords

(ver. 1) Click to play this song!
Pulp
 Rating:
4/5 (4 votes)

 Sorted For Es lessons Tabs too difficult? Try these video lessons and learn fast
 
                "Sorted for E's & Wizz"


Intro:

	-14-14-14-14-14-14-14-14-13-13-13-
	----------------------------------
	----------------------------------
	----------------------------------	X 2
	----------------------------------
	----------------------------------

	-11-11-11-11-11-9-9-9-8-8-8-------
	----------------------------------
	----------------------------------
	----------------------------------	X 2
	----------------------------------
	----------------------------------
	
	
Verse 1 :

	Oh is this the way to say the future's meant to feel?
	
	      C    G
	      
	-0----0----3-
	-0----1----0-
	-0----0----0-
	-0----2----0-
	-0----3----2-
	-0----x----3-
	
	
		repeat rhythm with C and G till chorus, i.e. :
		 
		- verse 1 : (C G) x 4
		- verse 2 : (C G) x 3
		- verse 3 : (C G) x 5
	

chorus:

	In the middle of the night it feels allright, but then tomorrow morning
	
	4 x D      4 x D      4 x F      4 x G      4 x A#      4 x A# 
	
	
	ooh ooh ooh, ooh then you come down
	
	A            A                 A#
	
	
	 D    F    G    A#   A
	
	-x----x----x----x----x-
	-x----x----x----x----x-
	-7---10---12----7----6-
	-7---10---12----8----7-
	-5----8---10----8----7-
	-x----x----x----6----5-
	

bridge:     

	----------
	----------
	----------
	-------5--
	----------
	-3-3-3----
	
	
end:	

	Ooh ooh ooh, ooh then you come down	( x 2)
	A            A                 A#
	
	ooh ooh ooh, what if you never come down
	A            A                      A#
            
Submit corrections


        Sorted For Es lessons Hard to play? Try these video lessons and learn fast Sorted For Es lessons
        
↑ Back to top | Tablatures and chords for acoustic guitar and electric guitar, ukulele, drums are parodies/interpretations of the original songs. You may use it for private study, scholarship, research or language learning purposes only