Home » P » Pulley »

Pulley - In Search Tabs

Artists:  A B C D E F G H I J K L M N O P Q R S T U V W X Y Z # 

In Search Tabs

(ver. 1) Click to play this song!
Pulley


The rhythm isn't exactly tabbed, but it's really easy.

INTRO (riff) g1:
first part:
e|---------------------------------------------------------------------------|
B|---------------------------------------------------------------------------|
G|-12-11-12-11-12-14--12-11-12-11-12-117--12-12-12-11-7--5-------------------|
D|---------------------------------------------------------------------------|
A|-10-9--10-9--10-12--10-9--10-9--10-9-5--10-10-10-9--5--3-------------------|
E|---------------------------------------------------------------------------|
second part:
e|---------------------------------------------------------------------------|
B|---------------------------------------------------------------------------|
G|-12-12-12-117-12-12-12-117-12-12-12-117-5----------------------------------|
D|---------------------------------------------------------------------------|
A|-10-10-10-9-5-10-10-10-9-5-10-10-10-9-5-3----------------------------------|
E|---------------------------------------------------------------------------|

INTRO g2 (repeat):
e|---------------------------------------------------------------------------|
B|---------------------------------------------------------------------------|
G|-7-7-7-7-7-7-7-7-5-5-5-5-4-4-4-4-------------------------------------------|
D|-7-7-7-7-7-7-7-7-5-5-5-5-5-5-5-5-------------------------------------------|
A|-5-5-5-5-5-5-5-5-3-3-3-3-2-2-2-2-------------------------------------------|
E|---------------------------------------------------------------------------|

VERSE g1&g2 (palm mute when needed):
e|---------------------------------------------------------------------------|
B|---------------------------------------------------------------------------|
G|-7-7-7-7-7-7-7-7-5-5-5-5-4-4-4-4-------------------------------------------|
D|-7-7-7-7-7-7-7-7-5-5-5-5-5-5-5-5-------------------------------------------|
A|-5-5-5-5-5-5-5-5-3-3-3-3-2-2-2-2-------------------------------------------|
E|---------------------------------------------------------------------------|

BRIDGE:
e|---------------------------------------------------------------------------|
B|---------------------------------------------------------------------------|
G|-9-9-9-9-9-9-9-9-12-12-12-12-12-12-12-12-----------------------------------|
D|-9-9-9-9-9-9-9-9-12-12-12-12-12-12-12-12-----------------------------------|
A|-7-7-7-7-7-7-7-7-10-10-10-10-10-10-10-10-----------------------------------|
E|---------------------------------------------------------------------------|

CHORUS (some muting here too):
e|---------------------------------------------------------------------------|
B|---------------------------------------------------------------------------|
G|---------5-5-5-5---------5-5-5-----------5-5-5-5---------5-5---------------|
D|-3-3-3-3-5-5-5-5-3-3-3-3-5-5-553-3-3-3-3-5-5-5-5-3-3-3-3-5-5-5-5-7-7-7-7-7-|
A|-3-3-3-3-3-3-3-3-3-3-3-3-3-3-353-3-3-3-3-3-3-3-3-3-3-3-3-3-3-5-5-7-7-7-7-7-|
E|-1-1-1-1---------1-1-1-1------31-1-1-1-1---------1-1-1-1-----3-3-5-5-5-5-5-|
            
Submit corrections

↑ Back to top | Tablatures and chords for acoustic guitar and electric guitar, ukulele, drums are parodies/interpretations of the original songs. You may use it for private study, scholarship, research or language learning purposes only