Home » P » Pulley »

Pulley - Blindfold Tabs

Artists:  A B C D E F G H I J K L M N O P Q R S T U V W X Y Z # 

Blindfold Tabs

(ver. 1) Click to play this song!
Pulley
Intro/verse
    D  B  F  F  C  B  C
e|--------------------------|
B|--------------------------|
G|--7-----------5--3--5-----|
D|--7--8--3--3--5--3--5-----| X 3
A|--5--8--3--3--3--1--3-----|
E|-----6--1--1--------------|

    B  B  B  B  E  F
e|----------------------|
B|----------------------|
G|--3--3--3--3----------|
D|--3--3--3--3--2--3----|
A|--1--1--1--1--2--3----|
E|--------------0--1----|


Chorus
e|--------------------------------------------------------------|
B|--------------------------------------------------------------|
G|--7-----10--7-----10--7-----10--10-8-10-8-------3--3--3--5----|
D|--7--8--10--7--8--10--7--8--10------------10----3--3--3--5----|
A|--5--8--8---5--8--8---5--8--8-------------------1--0--1--3----|
E|-----6---------6---------6------------------------------------|

SOLO
e|---------------------------------------------------------------------------|
B|-----------10----10-----------10---10--------------------------------------|
G|--10-10-10----10----10--8-8-8----8----8--------10-----10-----10---10-------|
D|-----------------------------------------8-8-8----8-8----8-8----8----8-----| X3
A|---------------------------------------------------------------------------|
E|---------------------------------------------------------------------------|

e|---------------------------------------------------------------------------|
B|-----------10----10-----------10---10------11-11-11-11-11------------------|
G|--10-10-10----10----10--8-8-8----8----8----10-10-10-10-10------------------|
D|---------------------------------------------------------------------------| 
A|---------------------------------------------------------------------------|
E|---------------------------------------------------------------------------|

e|----------------   ---------------|
B|----------------   ---------------|
G|-----3-----5----   -------3--5----|
D|--5--3--3--5----X3 ----5--3--5----|
A|--5--1--3--3----   ----5--1--3----|
E|--3-----1-------   ----3----------|            
Submit corrections

↑ Back to top | Tablatures and chords for acoustic guitar and electric guitar, ukulele, drums are parodies/interpretations of the original songs. You may use it for private study, scholarship, research or language learning purposes only