Home » P » Puddle Of Mudd »

Puddle Of Mudd - You Dont Know Tabs

Artists:  A B C D E F G H I J K L M N O P Q R S T U V W X Y Z # 

You Dont Know Tabs

(ver. 2) Click to play this song!
Puddle Of Mudd
Intro
Eb--------------------|
Bb--------------------|
Gb--------------------|
Db--------------------|
Ab------5b---------5b-|
Db--0-0----0-0-0-0----|
This is a couple of times, then play this one time

Eb------------|
Bb------------|
Gb------------|
Db------5-6---|
Ab------5-6---|
Db--0/5-5-6---|

Then this comes:
Pre-Verse
Eb------------------------|
Bb------------------------|
Gb--------7-------------7-|
Db--0-0---7---0-0-0-0---7-|
Ab--0-0---5---0-0-0-0---5-|
Db--0-0-------0-0-0-0-----| 

Note: the second guitar plays the second part of the intro sometimes during this part

Then this comes out:
(With Wah)
Eb---------------------------------------------------------------------------------|
Bb---------------------------------------------------------------------------------|
Gb---------------------------------------------------------------------------------|
Db--------10p9/7-7/5-------10p9-9-9h10p9h10h12--------10h9/7-7/5-------------------|
Ab---------------------------------------------------------------5h7-7-7p5-5/3-3h5-|
Db--0-0-0------------0-0-0----------------------0-0-0------------------------------|

This is two times
"
I'm so low..."
Verse:
Eb--------------------|
Bb--------------------|
Gb--------------------|
Db--------------------|
Ab------5/6/5---------|
Db--------------------|
This is repeated during the first part of the verse


Then comes this again:
"I'm so low, i just go down...."
Eb------------------------|
Bb------------------------|
Gb--------7-------------7-|
Db--0-0---7---0-0-0-0---7-|
Ab--0-0---5---0-0-0-0---5-|
Db--0-0-------0-0-0-0-----| 

Pre-Chorus:
"Strung along..."

Eb-----------------------------------| 
Bb-----------------------------------|
Gb--5-5--5/4-------------------------|
Db--5-5--5/4---0-0-0-0-------5-5/7-7-|
Ab--3-3--3/2---0-0-0-0---3/5---------|
Db-------------0-0-0-0---------------|

Before the Chorus, play this:
Eb-------|
Bb-------|
Gb-------|
Db--0----|
Ab--0----|
Db--0----|


Chorus:
"You don't know what it's like to live in my world..."
Eb--------------------------------------------------------|
Bb--------------------------------------------------------|
Gb--------------------------------------------------------|
Db---------------------------------------------------12---|
Ab---------------------------------------------------12---|
Db--10--12-12-12--10--12-12-12-10--12-12-12-12-12-12-12---|
    \______________________________________________/
              Palm Muted

After a few times, play this

Eb--------------------------------------------------------|
Bb--------------------------------------------------------|
Gb--------------------------------------------------------|
Db--10--12-12-12--10--12-12-12-10--12-12-12-12-12-12-12---|
Ab--10--12-12-12--10--12-12-12-10--12-12-12-12-12-12-12---|
Db--10--12-12-12--10--12-12-12-10--12-12-12-12-12-12-12---|

Play Pre-Chorus and then Chorus parts again, until you reach the final Chorus

Final Chorus:
"YOU DON'T KNOW what it's like to live in my world...."
Eb------------------------------------------------------------------|
Bb---------------------------------------------------------10b------| 
Gb------------------------------------------------------------------|
Db--0-0-0-0-3-55--0-0-0-0-3-5-33--0-0-0-0-3-55--0-0-0-0-------------|
Ab--0-0-0-0-3-55--0-0-0-0-3-5-33--0-0-0-0-3-55--0-0-0-0-------------|
Db--0-0-0-0-3-55--0-0-0-0-3-5-33--0-0-0-0-3-55--0-0-0-0-------------|
    \_____/       \_____/         \_____/       \_____/
      PM            PM              PM             PM

Outro:
"You don't know.."
Starts with this:
Eb-------|
Bb-------|
Gb-------|
Db--0----|
Ab--0----|
Db--0----|

And play this a couple of times and you are done:
Eb--------------------------------------------------------|
Bb--------------------------------------------------------|
Gb--------------------------------------------------------|
Db--10--12-12-12--10--12-12-12-10--12-12-12-12-12-12-12---|
Ab--10--12-12-12--10--12-12-12-10--12-12-12-12-12-12-12---|
Db--10--12-12-12--10--12-12-12-10--12-12-12-12-12-12-12---| <- Second guitar plays the last part with Wah
                                                               but only the final chords
            
Submit corrections

↑ Back to top | Tablatures and chords for acoustic guitar and electric guitar, ukulele, drums are parodies/interpretations of the original songs. You may use it for private study, scholarship, research or language learning purposes only