» » »

Puddle Of Mudd - She Hates Me New Bass

Artists:  A B C D E F G H I J K L M N O P Q R S T U V W X Y Z # 

She Hates Me New Bass

(ver. 1) Click to play this song!
Puddle Of Mudd
 Rating:
4/5 (4 votes)
                Mohlzeit!

Here is the right tab and the way he plays it live.
Standart tuning



Intro/Verse                     repeat several times
G|--------------------------------------------|
D|-------------------------------------------*|
A|--------------12---12---------14-14-14-12--*|
E|---12-----12----------14---14---------------|

Chorus                          repeat several times
G|--------------------------------------|
D|-------------------------------------*|
A|--------------0---0---------2-2-2--0-*|
E|---0-----0----------2----2------------|




Have fun

Cya
b
            
Submit corrections

↑ Back to top | Tablatures and chords for acoustic guitar and electric guitar, ukulele, drums are parodies/interpretations of the original songs. You may use it for private study, scholarship, research or language learning purposes only